Damien Rice - 9 Crimes Acoustic Text Guitar Tab

Learn the song with the online tablature player
Damien Rice

9 Crimes Acoustic

Verse

      Am                      F              C              G
E----------------------|--------------|--------------|----3---------|
B----------1------0----|--1------0----|----1------0--|---------3----|
G---------------2------|-------2------|---------0----|-----------0--|
D-------------2--------|-----3--------|-------2------|-------0------|
A----------0-----------|--3-----------|----3---------|--------------|
E----------------------|--------------|--------------|----3---------|
 Leave me out  to the    waste this is    not  what I    do it's the

      Am                      F              C              G
E----------------------|--------------|--------------|----3---------|
B----------1------0----|--1------0----|----1------0--|---------3----|
G---------------2------|-------2------|---------0----|-----------0--|
D-------------2--------|-----3--------|-------2------|-------0------|
A----------0-----------|--3-----------|----3---------|--------------|
E----------------------|--------------|--------------|----3---------|
         wrong  kind of   place  To be    thinking  of   you it's the

      Am                      F              C              G
E----------------------|--------------|--------------|----3---------|
B----------1------0----|--1------0----|----1------0--|---------3----|
G---------------2------|-------2------|---------0----|-----------0--|
D-------------2--------|-----3--------|-------2------|-------0------|
A----------0-----------|--3-----------|----3---------|--------------|
E----------------------|--------------|--------------|----3---------|
         wrong            time     For    somebody       new It's a

      Am                      F              C              G
E----------------------|--------------|--------------|----3---------|
B----------1------0----|--1------0----|----1------0--|---------3----|
G---------------2------|-------2------|---------0----|-----------0--|
D-------------2--------|-----3--------|-------2------|-------0------|
A----------0-----------|--3-----------|----3---------|--------------|
E----------------------|--------------|--------------|----3---------|
           Small Crime    And I            Got no        excuse

Chorus

      Am                      F              C              G
E----------------------|--------------|--------------|----3---------|
B----------1------0----|--1------0----|----1------0--|---------3----|
G---------------2------|-------2------|---------0----|-----------0--|
D-------------2--------|-----3--------|-------2------|-------0------|
A----------0-----------|--3-----------|----3---------|--------------|
E----------------------|--------------|--------------|----3---------|
And is that alright?                           Leave my  gun away when It's

      Am                       F              C             G
E----------------------|--------------|--------------|----3---------|
B----------1------0----|--1------0----|----1------0--|---------3----|
G---------------2------|-------2------|---------0----|-----------0--|
D-------------2--------|-----3--------|-------2------|-------0------|
A----------0-----------|--3-----------|----3---------|--------------|
E----------------------|--------------|--------------|----3---------|
         Loaded Is that alright?              If you don't shoot it how am supposed to

      Am                        F               C              G
E----------------------|-----------------|--------------|----3---------|
B----------1------0----|-----1------0----|----1------0--|---------3----|
G---------------2------|----------2------|---------0----|-----------0--|
D-------------2--------|--------3--------|-------2------|-------0------|
A----------0-----------|-----3-----------|----3---------|--------------|
E----------------------|-----------------|--------------|----3---------|
           hold it? is that alright?             Leave my   gun away when It's

      Am                        F               C              G
E----------------------|-----------------|--------------|----3---------|
B----------1------0----|-----1------0----|----1------0--|---------3----|
G---------------2------|----------2------|---------0----|-----------0--|
D-------------2--------|--------3--------|-------2------|-------0------|
A----------0-----------|-----3-----------|----3---------|--------------|
E----------------------|-----------------|--------------|----3---------|
          Loaded  is that alright?           yeah      with you

Verse

      Am                      F              C              G
E----------------------|--------------|--------------|----3---------|
B----------1------0----|--1------0----|----1------0--|---------3----|
G---------------2------|-------2------|---------0----|-----------0--|
D-------------2--------|-----3--------|-------2------|-------0------|
A----------0-----------|--3-----------|----3---------|--------------|
E----------------------|--------------|--------------|----3---------|
 Leave me out  to the    waste this is    not  what I    do It's the

      Am                      F              C              G
E----------------------|--------------|--------------|----3---------|
B----------1------0----|--1------0----|----1------0--|---------3----|
G---------------2------|-------2------|---------0----|-----------0--|
D-------------2--------|-----3--------|-------2------|-------0------|
A----------0-----------|--3-----------|----3---------|--------------|
E----------------------|--------------|--------------|----3---------|
         wrong  kind of   place  To be    cheating  om   you It's the

      Am                      F              C              G
E----------------------|--------------|--------------|----3---------|
B----------1------0----|--1------0----|----1------0--|---------3----|
G---------------2------|-------2------|---------0----|-----------0--|
D-------------2--------|-----3--------|-------2------|-------0------|
A----------0-----------|--3-----------|----3---------|--------------|
E----------------------|--------------|--------------|----3---------|
         wrong            time     she is  pulling me   through It's

      Am                      F              C              G
E----------------------|--------------|--------------|----3---------|
B----------1------0----|--1------0----|----1------0--|---------3----|
G---------------2------|-------2------|---------0----|-----------0--|
D-------------2--------|-----3--------|-------2------|-------0------|
A----------0-----------|--3-----------|----3---------|--------------|
E----------------------|--------------|--------------|----3---------|
           Small Crime    And I            Got no        excuse

Chorus

      Am                      F              C              G
E----------------------|--------------|--------------|----3---------|
B----------1------0----|--1------0----|----1------0--|---------3----|
G---------------2------|-------2------|---------0----|-----------0--|
D-------------2--------|-----3--------|-------2------|-------0------|
A----------0-----------|--3-----------|----3---------|--------------|
E----------------------|--------------|--------------|----3---------|
And is that alright?                           Leave my  gun away when It's

      Am                      F              C              G
E----------------------|--------------|--------------|----3---------|
B----------1------0----|--1------0----|----1------0--|---------3----|
G---------------2------|-------2------|---------0----|-----------0--|
D-------------2--------|-----3--------|-------2------|-------0------|
A----------0-----------|--3-----------|----3---------|--------------|
E----------------------|--------------|--------------|----3---------|
         Loaded Is that alright?              If you don't shoot it how am supposed to

      Am                        F               C              G
E----------------------|-----------------|--------------|----3---------|
B----------1------0----|-----1------0----|----1------0--|---------3----|
G---------------2------|----------2------|---------0----|-----------0--|
D-------------2--------|--------3--------|-------2------|-------0------|
A----------0-----------|-----3-----------|----3---------|--------------|
E----------------------|-----------------|--------------|----3---------|
           hold it? is that alright?             Leave my   gun away when It's

      Am                        F               C              G
E----------------------|-----------------|--------------|----3---------|
B----------1------0----|-----1------0----|----1------0--|---------3----|
G---------------2------|----------2------|---------0----|-----------0--|
D-------------2--------|--------3--------|-------2------|-------0------|
A----------0-----------|-----3-----------|----3---------|--------------|
E----------------------|-----------------|--------------|----3---------|
          Loaded  is that alright?  is that alright?   with you?

      Am                      F              C             G
E----------------------|--------------|--------------|----3---------|
B----------1------0----|--1------0----|----1------0--|---------3----|
G---------------2------|-------2------|---------0----|-----------0--|
D-------------2--------|-----3--------|-------2------|-------0------|
A----------0-----------|--3-----------|----3---------|--------------|
E----------------------|--------------|--------------|----3---------|
And is that alright?                           Leave my  gun away when It's

      Am                     F               C              G
E----------------------|--------------|--------------|----3---------|
B----------1------0----|--1------0----|----1------0--|---------3----|
G---------------2------|-------2------|---------0----|-----------0--|
D-------------2--------|-----3--------|-------2------|-------0------|
A----------0-----------|--3-----------|----3---------|--------------|
E----------------------|--------------|--------------|----3---------|
         Loaded Is that alright?              If you don't shoot it how am supposed to

      Am                        F               C              G
E----------------------|-----------------|--------------|----3---------|
B----------1------0----|-----1------0----|----1------0--|---------3----|
G---------------2------|----------2------|---------0----|-----------0--|
D-------------2--------|--------3--------|-------2------|-------0------|
A----------0-----------|-----3-----------|----3---------|--------------|
E----------------------|-----------------|--------------|----3---------|
           hold it? is that alright?             Leave my   gun away when It's

      Am                        F               C              G
E----------------------|-----------------|--------------|----3---------|
B----------1------0----|-----1------0----|----1------0--|---------3----|
G---------------2------|----------2------|---------0----|-----------0--|
D-------------2--------|--------3--------|-------2------|-------0------|
A----------0-----------|-----3-----------|----3---------|--------------|
E----------------------|-----------------|--------------|----3---------|
          Loaded  is that alright?  is that alright?   with you?

In the Outro just play Chords

  Am             F   C  G
Is that alright, yeah?
  Am             F   C  G
Is that alright, yeah?
  Am             F   C  G
Is that alright, yeah?
  Am                 F
Is that alright, Is that alright
       C          G
Is that alright, with you?
 Am   F   C   G
no....