Daniel Thomas - Amazing Grace Text Guitar Tab

Learn song with the online tabulature player
E|------3-----7-------|-7-----5----3----|-----------------|------3-----7-------|-7-----5----10--|
B|-3--------------8---|-----------------|------5----3-----|-3--------------8---|----------------|
G|--------------------|-----------------|-----------------|--------------------|----------------|
D|--------------------|-----------------|-----------------|--------------------|----------------|
A|--------------------|-----------------|-----------------|--------------------|----------------|
E|--------------------|-----------------|-----------------|--------------------|----------------|

E|-----------10--------|-10-----------------|------------------------|-----------------|
B|------12---------12--|-----12-------------|------------------------|-----------------|
G|---------------------|---------12---------|-------12--12-----------|-----------12----|
D|---------------------|---------------12---|-14------------14--12---|------12---------|
A|---------------------|--------------------|------------------------|-----------------|
E|---------------------|--------------------|------------------------|-----------------|

E|--------------------|-------------|-------------|
B|-12------12----10---|-8-----8-----|------8------|
G|-----12-------------|-------------|-------------|
D|--------------------|-------------|-------------|
A|--------------------|-------------|-------------|
E|--------------------|-------------|-------------|