Daniel Wirtz - Mon Amour Acoustic Chords

 
No chord
    
Standard guitar tuning:
E
A
D
G
B
E
Capo on 2 fret

Intro

E|-0----0----0--------0-0-|
B|-0----0----0--------0-0-|
G|-0----0----2--------2-0-|
D|-2----2----2--------2-0-|
A|-2----3----0--------0-2-|
E|-0----0----0--------0-3-| x1
   let ring----------|
E|-0--0--0-0-0-0-|
B|-0--0--0-0-0-0-|
G|-0--0--0-0-0-0-|
D|-2--2-/4/5/7/9-|
A|-2--3--0-0-0-0-|
E|-0--0--0-0-0-0-| x2
E|-0--0--0--------0-0-|
B|-0--0--0--------0-0-|
G|-0--0--2--------2-0-|
D|-2--2--2--------2-0-|
A|-2--3--0--------0-2-|
E|-0--0--0--------0-3-| x1

Verse 1

E|-0--0--0--0--0-0-|
B|-0--0--0--0--0-0-|
G|-0--0--2--2--2-0-|
D|-2--2--2--2--2-0-|
A|-2--3--0--0--0-2-|
E|-0--0--0--0--0-3-| x3
E|-0--0--0--0--0--0--0--0--0--0--0--0--x-|
B|-0--0--0--0--0--0--0--0--0--0--0--0--x-|
G|-0--0--2--2--0--0--2--2--0--0--2--2--x-|
D|-2--2--2--2--2--2--2--2--2--2--2--2--x-|
A|-2--3--0--0--3--3--0--0--3--3--0--0--x-|
E|-0--0--0--0--0--0--0--0--0--0--0--0--x-| x1

Chorus 1

E|-0--0--0--0--0-0-|
B|-0--0--0--0--0-0-|
G|-0--0--2--2--2-0-|
D|-2--2--2--2--2-0-|
A|-2--3--0--0--0-2-|
E|-0--0--0--0--0-3-| x4

Bridge 1

E|-0--0--0-0-0-0-|
B|-0--0--0-0-0-0-|
G|-0--0--0-0-0-0-|
D|-2--2-/4/5/7/9-|
A|-2--3--0-0-0-0-|
E|-0--0--0-0-0-0-| x1
E|-0--0--0--------0-0-|
B|-0--0--0--------0-0-|
G|-0--0--2--------2-0-|
D|-2--2--2--------2-0-|
A|-2--3--0--------0-2-|
E|-0--0--0--------0-3-| x1

Verse 2

E|-0--0--0--0--0-0-|
B|-0--0--0--0--0-0-|
G|-0--0--2--2--2-0-|
D|-2--2--2--2--2-0-|
A|-2--3--0--0--0-2-|
E|-0--0--0--0--0-3-| x3
E|-0--0--0--0--0--0--0--0--0--0--0--0--x-|
B|-0--0--0--0--0--0--0--0--0--0--0--0--x-|
G|-0--0--2--2--0--0--2--2--0--0--2--2--x-|
D|-2--2--2--2--2--2--2--2--2--2--2--2--x-|
A|-2--3--0--0--3--3--0--0--3--3--0--0--x-|
E|-0--0--0--0--0--0--0--0--0--0--0--0--x-| x1

Chorus 2

E|-0--0--0--0--0-0-|
B|-0--0--0--0--0-0-|
G|-0--0--2--2--2-0-|
D|-2--2--2--2--2-0-|
A|-2--3--0--0--0-2-|
E|-0--0--0--0--0-3-| x4

Bridge 2

E|-0--0--0--0--0--0--0--0--0-|
B|-0--0--0--0--0--0--0--0--0-|
G|-0--0--0--0--0--0--0--0--0-|
D|-2--2--2--2--0--2--2--2--2-|
A|-2--2--2--2--2--2--2--2--2-|
E|-0--0--0--0--3--0--0--0--0-| x1

Solo

E|-3--3--3--2-|
B|-3--3--3--3-|
G|-0--0--0--2-|
D|-2--0--2--0-|
A|-3--2--2----|
E|----3--0----| x3
E|-3--3--0--0--0-0-|
B|-3--3--0--0--0-0-|
G|-0--0--2--2--2-0-|
D|-2--2--2--2--2-0-|
A|-3--3--0--0--0-2-|
E|-------0--0--0-3-| x1

Chorus 3

E|-0--0--0--0--0-0-|
B|-0--0--0--0--0-0-|
G|-0--0--2--2--2-0-|
D|-2--2--2--2--2-0-|
A|-2--3--0--0--0-2-|
E|-0--0--0--0--0-3-| x8

All Content on this page is the property of the copyright owner of the original composition.