Danzig - 1000 Devils Reign Text Guitar Tab

Learn the song with the online tablature player
1000 DEVILS REIGN - Danzig

   main riff:
C |---------------|---------------|
G |---------------|---------------|
Eb|---------------|-----(drums)---|
Bb|-0---3---2---3-|-0-------------|
F |-0---3---2---5-|-0-------------|
Bb|-0---3---2-----|-0-------------|

bridge
C |---------------------------------|
G |---------------------------------|
Eb|---------------------------------|
Bb|-8-8-8-8-8-8-8-7---7-7-7-7-7-7-7-|
F |-8-8-8-8-8-8-8-7---7-7-7-7-7-7-7-|
Bb|-8-8-8-8-8-8-8-7---7-7-7-7-7-7-7-|

chorus
C |-----------------------------------------|
G |-----------------------------------------|
Eb|-----------------------------------------|
Bb|-0-0-0-0-0-0-0/10---10-10-10-10-10-10-10-|
F |-0-0-0-0-0-0-0/10---10-10-10-10-10-10-10-|
Bb|-0-0-0-0-0-0-0/10---10-10-10-10-10-10-10-|