Danzig - Kiss The Skull Text Guitar Tab

Learn the song with the online tablature player
KISS THE SKULL - two steps down

   main riff:
C |-------------------------|-------------------------|
G |-------------------------|-------------------------|
Eb|-------------------------|-------------------------|
Bb|-2---2-------------------|-2---2-------------------|
F |-2---2-------------------|-2---2-------------------|
C |-0---0-0---0-0---0-0---0-|-0---0-0---0-0-0-0-0---0-|
          pm ------------->         pm ------------->

pre-chorus
"whoa"):
C |-------------------------|-------------------------|
G |-------------------------|-------------------------|
Eb|-------------------------|-------------------------|
Bb|-5-----------------7-----|-2---2-------------------|
F |-5-----------------7-----|-2---2-------------------|
C |-3-----------------5-----|-0---0-0---0-0-0-0-0---0-|
                                    pm ------------->

pre-chorus
"yeah"):
C |-------------------------|-------------------------|
G |-------------------------|-------------------------|
Eb|-------------------------|-------------------------|
Bb|-2---2-2---2-2-2-2-2---2-|-2---2-2---2-2-2-2-2---2-|
F |-2---2-2---2-2-2-2-2---2-|-2---2-2---2-2-2-2-2---2-|
C |-0---0-0---0-0-0-0-0---0-|-0---0-0---0-0-0-0-0---0-|
          pm ------------->         pm ------------->

chorus
C |-------------------------|-------------------------|
G |-------------------------|-------------------------|
Eb|-------------------------|-------------------------|
Bb|-2-/-5---2---7-----5-----|-2---2-2---2-2-2-2-2---2-|
F |-2-/-5---2---7-----5-----|-2---2-2---2-2-2-2-2---2-|
C |-0-/-3---0---5-----3-----|-0---0-0---0-0-0-0-0---0-|
                                    pm ------------->
chorus end
C |-------------------------|-------------------------|
G |-------------------------|-------------------------|
Eb|-------------------------|-------------------------|
Bb|-2-/-5---2-----5---------|(5)----------------------|
F |-2-/-5---2-----5---------|(5)----------------------|
C |-0-/-3---0-----3---------|(3)----------------------|

 main   (4x)
 main   (6x)
 whoa   (4x)
 yeah   (2x)
 main   (6x)
 whoa   (4x)
 yeah   (2x)

chorus
3x)
 chorus end
 yeah   (2x)
 main   (6x)
 whoa   (4x)
 yeah   (2x)

chorus
7x)
 chorus end
 fade out on main riff...