Daphne Loves Derby - Birthday Gallery Chords

 
No chord
    
Standard guitar tuning:
E
A
D
G
B
E
No capo

Intro

   Bm9    LOL      OMG
E----0-----0--0-----0--|
B----2-----0---0----0--|
G----2-----6--------6--|
D----0-----7--------7--|
A--2-2---4-4------5-5--|
E----X-----0--------0--|

Bridge

Listen to the song for the strumming.
E----0-----0------0--|
B----2-----0------0--|
G----2-----6------6--|
D----0-----7------7--|
A----2-----4------5--|
E----X-----0------0--|
Bm9 LOL OMG Believe me, I believe everything you say Bm9 LOL OMG Even if you claimed you heard a ghost sing songs Bm9 LOL OMG I think I know what you're doing when I'm away Bm9 LOL OMG But believe me I'll believe they're simple mistakes Bm9 LOL OMG I've been worn away by birthday memories and galleries Bm9 LOL OMG Of pictures in my head of you when I'm away

Bridge

Listen to the song for the strumming.
E----0-----0------0--|
B----2-----0------0--|
G----2-----6------6--|
D----0-----7------7--|
A----2-----4------5--|
E----X-----0------0--|
Bm9 LOL OMG Maybe we could make this space to talk about it Bm9 LOL OMG Forget about it for now, it seems so hard to do Bm9 LOL OMG And there's a constant pain in my head caused by sights I'd rather forget Bm9 LOL OMG I hope this time it will fade away Bm9 LOL OMG I've been worn away by birthday memories and galleries Bm9 LOL OMG Of pictures in my head of you when I'm away Bm9 LOL OMG I'd do anything to keep this fear from flowing through my veins, oh Bm9 LOL OMG I'd stay awake and fret just for you -- Now, play the bridge again while singing "Ohhhhhh". -- Bm9 LOL OMG I'd stay awake and fret just for you ^ Do 4 times. Well, I hope that was accurate and helpful.

All Content on this page is the property of the copyright owner of the original composition.