Daphne Loves Derby - Cue The Sun Text Guitar Tab

Learn song with the online tabulature player
Cue The Sun! by Daphne Loves Derby

H E Y   L I S T E N ,
play with the song for the timing and strumming
and capo on the fifth fret, now that's delicious
some different stuff then your regular set of chords
but the little things add a lot to the sound of this song


VERSE 1:
e|------------f------|
B|-----------c-i-----|
G|------------h-r----|
D|-------0-----o-s---|
A|---0h2--------r-t--|
E|---------------d---|
     if  i  find... 


e|--3-------0-------0--------3---2--3--|
B|--3-------3-------3--------3---3--3--|
G|--0-------0-------0--------0---2--2--|
D|--0-------2-------2--------0---0--0--|
A|--2-------2-------3--------2---------|
E|--3-----2-0----------------3---------|
    find... dark... laugh... awake...   


e|--3--------0-------0------3---2--3--|
B|--3--------3-------3------3---3--3--|
G|--0--------0-------0------0---2--2--|
D|--0--------2-------2------0---0--0--|
A|--2--------2-------3------2---------|
E|--3------2-0--------------3---------|
    great... self... run... hide...  


    CHORUS:
    e|--3--------3--------3--------0-------|
    B|--3--------3--------3--------3-------|
    G|--0--------0--------0--------0-------|
    D|--2--------0--------2--------2-------|
    A|--3--------2--------3--------2-------|
    E|-----------3-----------------0-------|
        don't... night... tried... fight... 


    e|--3--------3-------2-h3--2-|
    B|--3--------3-------3--3--3-|
    G|--0--------0-------2--2--2-|
    D|--2--------0-------0--0--0-|
    A|--3--------2---------------|
    E|-----------3---------------|
    think... lose... night... 


    e|--3-------3---------3-------0-------|
    B|--3-------3---------3-------3-------|
    G|--0-------0---------0-------0-------|
    D|--2-------0---------2-------2-------|
    A|--3-------2---------3-------2-------|
    E|----------3-----------------0-------|
        moon... bright... soul... light... 


    e|--0--0--0------0--------|
    B|--2-h3--2------1--------|
    G|--0--0--0------0--------|
    D|--2--2--2------2--------|
    A|--0--0--0------0--------|
    E|------------------------|
        bones...     bones...  


VERSE 2:
e|-----------f-------|
B|----------c-i------|
G|-----------h-r-----|
D|------0-----o-s----|
A|--0h2--------r-t---|
E|--------------d----|
     in the desert... 


e|--3---------0---------0---------3---2--3--|
B|--3---------3---------3---------3---3--3--|
G|--0---------0---------0---------0---2--2--|
D|--0---------2---------2---------0---0--0--|
A|--2---------2---------3---------2---------|
E|--3-------2-0-------------------3---------|
    desert... nerves... one by... into...    


e|--3--------0--------0-------3---2--3--|
B|--3--------3--------3-------3---3--3--|
G|--0--------0--------0-------0---2--2--|
D|--0--------2--------2-------0---0--0--|
A|--2--------2--------3-------2---------|
E|--3------2-0----------------3---------|
    since... santa... hate... thing...   


    CHORUS again!

    VERSE for harmonica solo (harmonica is in C)

    CHORUS one more time! the last "bones" is held a little longer.

    You stay classy, San Diego