Daphne Loves Derby - Hammers And Hearts Text Guitar Tab

Learn song with the online tabulature player
Song: Hammers and Hearts
Artist: Daphne Loves Derby
Album: On The Strength Of All Convinced
Tabbed By Gabe Mouer lord of the dance (callxanxambulance@hotmail.com)

Tab Key:
h  = hammer-on
x  = mute
p  = pull-off
b  = bend
/  = slide up/down
#* = harmonic
~  = Let ring
Pm.= Palm mute


This is the AMAZING first single off of Daphne's dabut full-length.
Its also my first tab.
I tried to get the strumming pattern down as best i could. Im sure you can figure it out.
~Gabe


STANDARD TUNING

Intro/Verse 2
e|-00--0-0--0-00000----00-0-0-0~-------|
B|-00--0-0--0-00000----00-0-0-0~-------|
G|-88--2/4--2/44444-x3-88-2/4/2~-------|
D|-99--4/6--4/66666----99-4/6/4~-------|
A|-77--0-0--0-00000----77-0-0-0~-------|
E|-------------------------------------|
    "20 hours deep..."


Chorus
e|-00-00-000000-000000-000000---00-00-000000--00000000-0--0------|
B|-00-00-000000-000000-000000---00-00-000000--00000000-0--0------|
G|-44-44-444444-444444-444444---44-44-444444--22222222-4--4------|
D|-22-22-222222-222222-222222---22-22-222222--22222222-2--2------|
A|-xx-00-222222-000000-222222---00-22-444444--xxxxxxxx-x--0------|
E|-44------------------000000-----------------22222222-4---------|
                 

            Solo thingy
e|---4p0-0-0000-00-0-0-0-0-0000----7/9-9--11---11-----------------------0-0-0-0-0-0-0-0--|
B|--2------4444-5-5--4h5p4-0000---0---------12---12-----9--9--9--9--9--5-5-4-4-0-0-0-0---|
G|-4-----------------------------6-------9-----9----9----9--9--9--9----------------------|
D|-----------------------------------------------------7--7--7--7--7---------------------|
A|---------------------------------------------------------------------------------------|
E|---------------------------------------------------------------------------------------|

e|-00--0-0--0-00000-|
B|-00--0-0--0-00000-|
G|-88--2/4--2/44444-|x2
D|-99--4/6--4/66666-|
A|-77--0-0--0-00000-|
E|------------------|

Verse1 CHORDS (listen for chord changes)
e|-2--0--0-0-0--0--0---------------------|
B|-0--0--0-0-0--0--0---------------------|
G|-1--2--2-4-2--4--4---------------------|
D|-2--2--4-2-2--2--2---------------------|
A|-2--x--2-0-0--x--0---------------------|
E|-0--2------2--4------------------------|

*Chorus*
Dont ask me to think good intentions will change everything,
This could be the last day that i hold my breath and stay awake for you

Intro/Verse 2
20 hours deep
Oh it was enough time for you
to change everything for me
20 hours deep
I'm drowning myself in thoughts of you
And you're company
     THIS IS PLAYED OVER VERSE2  (guitar 2)
      e|------------------------------------------------------------------|
      B|-7h9p7h9p7h9p7h9p7h9p7h9p7h9p7h9--4h5p4h5p4h5p4h5p4h5p4h5p4h5p4h5-|
      G|------------------------------------------------------------------|



Palm Muted
e|----------------0~----------------|
B|----------------2~----------------|
G|-222222222222-4-2~----------------|
D|-222222222222-2-2~----------------|
A|-xxxxxxxxxxxx-x-0~----------------|
E|-222222222222-4-------------------|
pm............. .
   "Please tell me how this is fair"


*CHORUS*

Continue to play chorus over
"stay away"

 Clean Chorus
e|--------------------------0-------|
B|--------------------------0--2~---|
G|-4--4--4--4--4--4--4--4---2--2~---|
D|-2--2--2--2--2--2--2--2---2--2~---|
A|-x--0--2--0--2--0--2--4---x--0----|
E|-4-----------0------------2-------|
 "dont ask me to think...."


SO THE ORDER IS:
 Intro/Verse 2
 Chorus w/solo
 Verse
 Chorus
 Intro/Verse 2  (played with 2nd guitar)
 Palm muted part
 Chorus
 Chorus ("stay away")
 Clean Chorus
 Chorus


I hope this tabbed helped.
Keep the music alive.
Peace out!