Daphne Loves Derby - I Wish You Knew This Song Was About You Text Guitar Tab

Learn song with the online tabulature player
------------------------------------------------------------
I Wish You Knew This Song Was About You – Daphne Loves Derby
------------------------------------------------------------

Tabbed by: TheLastStory
Tuning: Capo 1st Fret

Verse 2x
e#---x---x---x---x---x---x-|
B#---3---3---3---3---3---3-|
G#---2---2---2---2---2---2-|
D#---0---0---0---0---0---2-|
A#---0---0---2---0---0---0-|
E#---x---3---x---3---x---x-|

This bedroom light
Distracts my stare
I find it hard to keep still
And everything is so still, like this
I won’t have to wait for long
Before I start to see that
You’re the only thing that was

Chorus 2x
e#---x---x---x---x---x-|
B#---3---3---3---3---3-|
G#---2---2---2---2---2-|
D#---0---0---0---2---3-|
A#---2---0---0---0---0-|
E#---x---3---x---x---x-|

Will you stay keep this evening calm?
I'll shield you from this night,
I'll make everything alright.
Will you make sure the door is locked?
We won't have to talk
As long as you are here with me 

End on.
e#---x-|
B#---3-|
G#---2-|
D#---4-|
A#---0-|
E#---x-|

Again.