Daphne Loves Derby - You Versus The Sea Chords

 
No chord
    
Standard guitar tuning:
E
A
D
G
B
E
No capo

Intro

E|------------X-----------------X----------------|
A|------------X-----------------X----------------|
D|------------0---2-------------0---2------------|
G|--------2---2---2---------2---2---2------------|
B|----0h2-----0---------0h2-----0----------------|
E|------------4-----------------4----------------|

Verse

E|-----X---/---X---X-----|
A|-----5---/---12--5-----|
D|-----7---/---14--4-----|      (X4)
G|-----6---/---13--6-----|
B|-----0---/---0---0-----|
E|-----0---/---0---0-----|

Chorus

Strum 1 time for each chord
E|-----X---/---X---X-----|
A|-----5---/---12--5-----|
D|-----7---/---14--4-----|
G|-----6---/---13--6-----|
B|-----0---/---0---0-----|
E|-----0---/---0---0-----|

Bridge

E|---X---    ---X-----|
A|---12--    ---5-----|
D|---14--    ---7-----|        (X4)
G|---13--    ---6-----|
B|---X---    ---X-----|
E|---X--- X7 ---X-----| X7

Outro

Strum 1 time for each chord
E|-----X---/---X---X-----|
A|-----5---/---12--5-----|
D|-----7---/---14--4-----|
G|-----6---/---13--6-----|
B|-----0---/---0---0-----|
E|-----0---/---0---0-----|

All Content on this page is the property of the copyright owner of the original composition.