Darius Rucker - Come Back Song Text Guitar Tab

Learn the song with the online tablature player
Ive tabbed out the licks for the more adventurous but u can miss them out if u want to :)

Ok so the intro goes like this (ive marked u and d above the chords to try to give some
idea of the strum pattern)

                   d   u d u d u  u  u  u d u d  d  u d u d u  u  u  u d u d  u
e|---------------------0-x-0-0-0--0--0--0-x-0-0--3--3-x-3-3-3--3--3--3-x-3-3--3|
B|-1/3-3---------------1-x-1-1-3--3--3--3-x-3-3--3--3-x-3-3-3--3--3--3-x-3-3--3|
G|-2/4---2/2p0----0----0-x-0-0-0--0--0--0-x-0-0--0--0-x-0-0-0--0--0--0-x-0-0--0|
D|0------------0--0h2--2-x-2-2-4--4--4--4-x-4-4--0--0-x-0-0-2--2--2--2-x-2-2--2|
A|----------------0h3--3-x-3-3-5--5--5--5-x-5-5--2--2-x-2-2-2--2--2--2-x-2-2--2|
E|---------------------0-x-0-0-0--0--0--0-x-0-0--3--3-x-3-3-0--0--0--0-x-0-0--0|

  d  u d u d u  u  u  u d u d  d  u d u d u
e|0--0-x-0-0-0--0--0--0-x-0-0--3--3-x-3-3-3----------------------|
B|1--1-x-1-1-3--3--3--3-x-3-3--3--3-x-3-3-3--1/3-3---------------|
G|0--0-x-0-0-0--0--0--0-x-0-0--0--0-x-0-0-0--2/4---2/2p0----0----|
D|2--2-x-2-2-4--4--4--4-x-4-4--0--0-x-0-0-0--------------0--0h2--|
A|3--3-x-3-3-5--5--5--5-x-5-5--2--2-x-2-2-2-----------------0h3--|
E|0--0-x-0-0-0--0--0--0-x-0-0--3--3-x-3-3-3----------------------|

  d  u d u d u  u  u  u d u d  d  u d u d u
e|0--0-x-0-0-0--0--0--0-x-0-0--3--3-x-3-3-3----------------------|
B|1--1-x-1-1-3--3--3--3-x-3-3--3--3-x-3-3-3----------------------|
G|0--0-x-0-0-0--0--0--0-x-0-0--0--0-x-0-0-0--5p4p0-5-4-2p0--0----|
D|2--2-x-2-2-4--4--4--4-x-4-4--0--0-x-0-0-0---------------0-0h2--|
A|3--3-x-3-3-5--5--5--5-x-5-5--2--2-x-2-2-2-----------------0h3--|
E|0--0-x-0-0-0--0--0--0-x-0-0--3--3-x-3-3-3----------------------|

Ok so now uve reached the verse, it follows the same strum pattern as the intro

The D chord is the C shape moved up two frets used in the intro

  C         D             G
     I woke up again this morning
  C                  D                  G
     And wouldnt you know it, pouring rain
  C             D                 G
     I went and burned the pot of coffee
  C                   D                  G
     And laughed as i poured it down the drain

(here the strum pattern ends like in the intro before the lick, only
you leave a pause before the chorus)

I dont know the name of the chord so im calling it G*, reguardless this is the shape of it
for the end of the chorus: 2-0-0-0-3-3 (so you do a walk down from the G to Em)

                 C     D      G        Em
     Coz I didnt kno--oow I needed you so
                    C    D        G     Em
     And lettin you goo-oo was wrong
                C     D                 G   G  Em
     And baby i kno--oow youve got your radio  on, so this is my
     C  C    D    D
     My bad, come back... song

Hit these last two chords once on each word, another pause at song untill the next bar.

  d  u d u d u  u  u  u d u d  d  u d u d u  u  u  u d u d  u
e|0--0-x-0-0-0--0--0--0-x-0-0--3--3-x-3-3-3--3--3--3-x-3-3--3|
B|1--1-x-1-1-3--3--3--3-x-3-3--3--3-x-3-3-3--3--3--3-x-3-3--3|
G|0--0-x-0-0-0--0--0--0-x-0-0--0--0-x-0-0-0--0--0--0-x-0-0--0|
D|2--2-x-2-2-4--4--4--4-x-4-4--0--0-x-0-0-2--2--2--2-x-2-2--2|
A|3--3-x-3-3-5--5--5--5-x-5-5--2--2-x-2-2-2--2--2--2-x-2-2--2|
E|0--0-x-0-0-0--0--0--0-x-0-0--3--3-x-3-3-0--0--0--0-x-0-0--0|

d  u d u d u  u  u  u d u d  d  u d u d u
e|0--0-x-0-0-0--0--0--0-x-0-0--3--3-x-3-3-3----------------------|
B|1--1-x-1-1-3--3--3--3-x-3-3--3--3-x-3-3-3----------------------|
G|0--0-x-0-0-0--0--0--0-x-0-0--0--0-x-0-0-0--5p4p0-5-4-2p0--0----|
D|2--2-x-2-2-4--4--4--4-x-4-4--0--0-x-0-0-0---------------0-0h2--|
A|3--3-x-3-3-5--5--5--5-x-5-5--2--2-x-2-2-2-----------------0h3--|
E|0--0-x-0-0-0--0--0--0-x-0-0--3--3-x-3-3-3----------------------|

The rest of the song follows the same pattern for verse and chorus, once you reach the outro-y
bit, where the na na na na's etc, simply keep playing through the chorus progression missing
out the C C, D D part untill the very last my bad, come back song :)

There we go hopefully u found this helpful and will be able to play and really enjoy
this awesome song :)

| /   slide up
| \   slide down
| h   hammer-on
| p   pull-off
| ~   vibrato
| +   harmonic
| x   Mute note
| b   Bend
| pb  Pre-bend
| br  Bend release
| pbr Pre-bend release
| brb Bend release bend