Darkness - Dinner Lady Arms Text Guitar Tab

Learn song with the online tabulature player
This is a great song by a brilliant band. Sorry I could'nt tab the solo (too fast 4 me!) :)
PLEASE RATE THIS TAB!! ;D

Tuning:Standard

Intro:
                                    
Guitar 1, clean.                                                       
                                                                        
E|---9-------9---------|---7-----7------|---7-----7------|---7-7---7-7-----|
B|-7---7-------7-----7-|-----9-----9---9|-----7-----7---7|---------------7-|
G|-------9-------9-----|-9-----9-----9--|-------8-----8--|-------9-----9---|
D|---------------------|----------------|----------------|-----------------|
A|---------------------|----------------|----------------|-----------------|
E|---------------------|----------------|----------------|-----------------|     
<<<<<<<<<<<

 >>>>>>>>>>>>>>>>>>>>>>>>>>>>>

Verse:

E|---------------------|-------------------|----------------|
B|---------------------|-------------------|----------------|
G|---------------------|-----9-9--11-9----9|---8-9---8-9---8|
D|---7-9-----7-9-----7-|--11----11-----11--|-9-----9-----9--|
A|-9------9-------9----|-------------------|----------------|
E|---------------------|-------------------|----------------|

E|----------------|
B|-----5-----5----|                      ^
G|---6-----6------|    <