Darlene Zschech - Shout To The Lord Text Guitar Tab

Learn song with the online tabulature player
(my Je-sus)
 1   2   3   4    1   2   3   4    1   2   3   4    1   2   3   4
g---------------- ---------------- ---------------- -----------------|
d---------------- ---------------- ---------------- -----------------|
a0--------------- ---------------- ---------------- 5----------------|
e---------------- 0--------------- 2-----2-0------- -----------------|
 |_____________INTRO______________|

 1   2   3   4    1   2   3   4    1   2   3   4    1   2   3   4
g---------------- ---------------- ---------------- ---------------- ||
d---------------- 2-------4------- 5-------4------- 2---------------.||
a4-------5------- ---------------- ---------------- ----------------.||
e---------------- ---------------- ---------------- --------0------- ||


(Shout to the...)
 1   2   3   4    1   2   3   4    1   2   3   4    1   2   3   4
g2-----2--------- ---------------- 2-----2--------- ----------------|
d--------4-----4- 0-------2-22222- --------4-----4- 0---0-002--22---|
a---------------- ---------------- ---------------- -----0----------|
e---------------- ---------------- ---------------- ----------------|


 1   2   3   4    1   2   3   4    1   2   3   4    1   2   3   4
g----------6-4--- - -------------- ---------------- 1-------4--44214-|
d4-----424-----42 0---0---0 --0-0- 2-----224---4--- -----------------|
a---------------- ------00--0----- ---------------- -----------------|
e---------------- ---------------- ---------------- -----------------|

 1   2   3   4    1   2   3   4    1   2   3   4    1   2   3   4
g2-----2--------- ---------------- 2-----2--------- ----------------|
d--------4-----4- 0-------2-22222- --------4-----4- 0---0-002--22---|
a---------------- ---------------- ---------------- -----0----------|
e---------------- ---------------- ---------------- ----------------|

Nothing...
 1   2   3   4    1   2   3   4    1   2   3   4
g----------6-4--- ---------------- ----------------||
d4-----424-----42 0-------2------- ----------------||
a---------------- ---------------- 0---------------||
e---------------- ---------------- ----------------||
 |_____________TAG________________|