Das Pop - Never Get Enough Text Guitar Tab

Learn song with the online tabulature player
I used the YouTube video for the tabbing, so the timing is simular to that video.
link: http://www.youtube.com/watch?v=0chMOJ5qUrk


Start at 0:15
G|-----------------------------------------------|
D|-5-5-5-5-5--5-5---------5-5-5-5-5--5-5---------|
A|-----------------------------------------------|
E|-----------------------------------------------|		x2

G|-----------------------------------------------|
D|-----------------------------------------------|
A|---------0-0-2--3-3--7-7-5-5-------------------|
E|-10/3-3----------------------3--3-3------------|		x2

Pause - verse

0:46
G|------------|
D|--5~--------|
A|------------|
E|------------|

0:56
G|------------|
D|--5~--------|
A|------------|
E|------------|

Chorus:
G|-----------------------------------------------|
D|-----------------------------------------------|
A|---------0-0-2--3-3--7-7-5-5-------------------|
E|-10/3-3----------------------3--3-3------------|		x2

Verse:
G|-----------------------------------------------|
D|-5----------------------5--5-5-----------------|
A|---5-3--3-3---------3-5------------------------|
E|-----------------------------------------------|		x4

G|-----------------------------------------------|
D|-----------------------------------------------|
A|---------0-0-2--3-3--7-7-5-5-------------------|
E|-10/3-3----------------------3--3-3------------|		x2

Bridge:
G|-----------------------------------------------|
D|------------------2~--2-3~-2~------------------|
A|-3~--5-----------------------------------------|
E|-------3~---1~-0-------------------------------|

G|-----------------------------------------------|
D|-----------------------------------------------|
A|--5-5-5-5-5-5-5-5------------------------------|
E|-----------------------------------------------|

Pause - come in together with bells
G|-----------------------------------------------|
D|-----------------------------------------------|
A|-----------------------------------------------|
E|--5-5-5--5-5----------5-5-5--5-5---------------|		x2

Verse:
G|-------------------------|
D|-------------------------|
A|--10\5-3-------3/5--10---|
E|-------------------------|		x2

Pre-Chorus:
G|-----------------------------------------------|
D|--5-5-5--5-5--------5-5-5--5-5-----------------|
A|-----------------------------------------------|
E|-----------------------------------------------|		x2

Chorus:
G|-----------------------------------------------|
D|-----------------------------------------------|
A|---------0-0-2--3-3--7-7-5-5-------------------|
E|-10/3-3----------------------3--3-3------------|		x3

G|-----------------------------------------------|
D|-----------------------------------------------|
A|---------0-0-2--3-3--7-7-5-5-------------------|
E|-10/3-3----------------------3~----------------|

here you go :)