Dashboard Confessional - Broken Hearts And Concrete Floors Chords

 
No chord
    
Standard guitar tuning:
E
A
D
G
B
E
No capo
|---0------0------0------0------0------0---|
|---0------0------0------0------0------0---|
|---0------0------0------0------0------0---|    x4
|---0------0------10-----5------7------0---|
|---0------4------9------7------0------4---|
|---0------x------0------0------0------x---|
|---0------4------5------4------2---|
|---0------0------0------0------0---|
|---0------0------0------0------0---|     x3
|---0------0------0------0------2---|
|---0------x------x------x------0---|
|---0------4------5------4------0---|
|---0------0------0------0------0------0---|
|---0------0------0------0------0------0---|
|---0------0------0------0------0------0---|    x4
|---0------0------10-----5------7------0---|
|---0------4------9------7------0------4---|
|---0------x------0------0------0------x---|
|---7------4------5------4------2------5------4---|
|---0------0------0------0------0------0------0---|
|---0------0------0------0------0------0------0---|    x6
|---0------0------0------0------2------0------0---|
|---x------x------x------x------0------x------x---|
|---7------4------5------4------0------5------4---|

Outro

           PM
|---7------7------0---|
|---0------0------0---|
|---0------0------0---|
|---0------0------0---|
|---x------x------0---|
|---7------7------4---|

All Content on this page is the property of the copyright owner of the original composition.