Dashboard Confessional - I Know About You Text Guitar Tab

Learn song with the online tabulature player
Tuning: Half Step Down

eb|----------------------------10p9----------------------------------|
Bb|-----------5-5/7h10p7----7-------10p7\5-7-5-3-5h7p5p3-5h7p5p3-----|
Gb|--7--6--7---------------------------------------------------------|
Db|------------------------------------------------------------------|
Ab|------------------------------------------------------------------|
Eb|------------------------------------------------------------------|

eb|--10p9----10p9------12p10----14b----------------------------------|
Bb|-------10------10---------10--------------------------------------|
Gb|------------------------------------------------------------------|
Db|------------------------------------------------------------------|
Ab|------------------------------------------------------------------|
Eb|------------------------------------------------------------------|