Dashboard Confessional - Reason To Believe Text Guitar Tab

Learn song with the online tabulature player
Dashboard Confessional
Reason to Believe
Dusk & Summer

Okay, everybody.  I haven't seen this one tabbed out anywhere on the web, so I decided I
it a shot.  This is one of the best songs on "Dusk and Summer", and it immediately
my attention when I first listened to the album.  Anyway, here's the tab.  I didn't 
the rhythms, so you'll have to figure it out on your own.  Shouldn't be that hard, though.
Try to rate this tab if you can.

Intro:
eb|-----------------------|
Bb|-----------------------|
Gb|----6------------------|   4x
Db|----6----6----7--------|
Ab|----4----6----7--------|
Eb|---------4----5--------|

Verse:

"Oh, sweet lungs...."

eb|---------------------0-------|
Bb|---------------------0-------|
Gb|---------------------1-------|  Palm Muted until open chord.
Db|-----9-----2---2-----2-------|
Ab|-----7-----3---4-----2-------|
Eb|---------------------0-------|


"Drills me in my every step...."

eb|---------------------0-------|
Bb|---------------------0-------|
Gb|---------------------1-------|
Db|-----9-----2---2-----2-------|
Ab|-----7-----3---4-----2-------|
Eb|---------------------0-------|


Pre-Chorus:

"Just one more breath...."

eb|----0---------0---------0----------0--------|
Bb|----0---------0---------0----------0--------|
Gb|----6---------2---------1----------2--------|
Db|----6---------2---------2------4---2--------|
Ab|----4---------0---------2------4---0--------|
Eb|------------------------0------2------------|

"My heart is stirring...."

eb|----0---------0-----------|
Bb|----0---------0-----------|
Gb|----6---------2-----------|
Db|----7---------4-----------|
Ab|----4---------3-----------|
Eb|--------------------------|

Chorus:

"Breathe, don't you wanna breathe?"

eb|-----0----0---0----0---------|
Bb|-----0----0---0----0---------|
Gb|-----1----7---6----2---------|
Db|-----2----7---7----2---------|
Ab|-----2----5---4----0---------|
Eb|-----0-----------------------|


"My capillaries scream...."

eb|-----0----0---0----0---------|
Bb|-----0----0---0----0---------|
Gb|-----1----7---6----2---------|
Db|-----2----7---7----2---------|
Ab|-----2----5---4----0---------|
Eb|-----0-----------------------|


"Will you carry me...."

eb|-----0--------|
Bb|-----0--------|
Gb|-----2--------|
Db|-----2--------|
Ab|-----0--------|
Eb|--------------|


Repeat Intro:

Intro:
eb|-----------------------|
Bb|-----------------------|
Gb|----6------------------|   1x
Db|----6----6----7--------|
Ab|----4----6----7--------|
Eb|---------4----5--------|

Verse II:

"Steady lungs, don't fail me now...."

eb|---------------------0-------|
Bb|---------------------0-------|
Gb|---------------------1-------|
Db|-----9-----2---2-----2-------|    Palm Muted until open chord.
Ab|-----7-----3---4-----2-------|
Eb|---------------------0-------|


"Fill me up with every step...."

eb|---------------------0-------|
Bb|---------------------0-------|
Gb|---------------------1-------|
Db|-----9-----2---2-----2-------|
Ab|-----7-----3---4-----2-------|
Eb|---------------------0-------|


Pre-Chorus:

"Just one more breath...."

eb|----0---------0---------0----------0--------|
Bb|----0---------0---------0----------0--------|
Gb|----6---------2---------1----------2--------|
Db|----6---------2---------2------4---2--------|
Ab|----4---------0---------2------4---0--------|
Eb|------------------------0------2------------|

"My heart is stirring...."

eb|------0---------|
Bb|------0---------|
Gb|------6---------|
Db|------7---------|
Ab|------4---------|
Eb|----------------|

Chorus:

"Breathe, don't you wanna breathe?"

eb|-----0----0---0----0---------|
Bb|-----0----0---0----0---------|
Gb|-----1----7---6----2---------|
Db|-----2----7---7----2---------|
Ab|-----2----5---4----0---------|
Eb|-----0-----------------------|


"My capillaries scream...."

eb|-----0----0---0----0---------|
Bb|-----0----0---0----0---------|
Gb|-----1----7---6----2---------|
Db|-----2----7---7----2---------|
Ab|-----2----5---4----0---------|
Eb|-----0-----------------------|


"Will you carry me...."

eb|-----0--------|
Bb|-----0--------|
Gb|-----2--------|
Db|-----2--------|
Ab|-----0--------|
Eb|--------------|


Bridge:

"Once more...."

eb|---------------------------|
Bb|---------------------------|
Gb|----7------4---2-----------|
Db|----7------4---2-----------|
Ab|----5------2---0-----------|
Eb|---------------------------|


"I have reason to believe...."

eb|---------------------------|
Bb|---------------------------|
Gb|----7------4---2-----------|
Db|----7------4---2-----------|
Ab|----5------2---0-----------|
Eb|---------------------------|

"I can feel it on my teeth...."

eb|---------------------------|
Bb|---------------------------|
Gb|----7------4---2-----------|
Db|----7------4---2-----------|
Ab|----5------2---0-----------|
Eb|---------------------------|


"I can roll them on my tongue...."

eb|---------------------------|
Bb|---------------------------|
Gb|-----7----9----------------|
Db|-----7----9----9----7------|
Ab|-----5----7----9----7------|
Eb|---------------7----5------|

"They almost supple in defeat...."

eb|---------------------------|
Bb|---------------------------|
Gb|-----7----9----------------|
Db|-----7----9----9----7------|
Ab|-----5----7----9----7------|
Eb|---------------7----5------|

"I feel the tension in my lungs...."

eb|---------------------------|
Bb|---------------------------|
Gb|-----7----9----------------|
Db|-----7----9----9----7------|
Ab|-----5----7----9----7------|
Eb|---------------7----5------|

"...filled with my resolve to...."

eb|---------------------------|
Bb|---------------------------|
Gb|-----7----9----------------|
Db|-----7----9----9----7------|
Ab|-----5----7----9----7------|
Eb|---------------7----5------|


Chorus:

"Breathe, don't you wanna breathe?"

eb|-----0----0---0----0---------|
Bb|-----0----0---0----0---------|
Gb|-----1----7---6----2---------|
Db|-----2----7---7----2---------|
Ab|-----2----5---4----0---------|
Eb|-----0-----------------------|


"My capillaries scream...."

eb|-----0----0---0----0---------|
Bb|-----0----0---0----0---------|
Gb|-----1----7---6----2---------|
Db|-----2----7---7----2---------|
Ab|-----2----5---4----0---------|
Eb|-----0-----------------------|


"Will you carry me...."

eb|-----------------|
Bb|-----------------|
Gb|--6----4----2----|
Db|--6----4----2----|
Ab|--4----2----0----|
Eb|-----------------|

Outro:

eb|------------------|
Bb|------------------|
Gb|------------------|   4x
Db|-----2-----4------|
Ab|-----2-----4------|
Eb|-----0-----2------|

End On:

eb|---------|
Bb|---------|
Gb|---------|
Db|----2----|
Ab|----2----|
Eb|----0----|