Dashboard Confessional - These Bones Text Guitar Tab

Learn song with the online tabulature player
Dashboard Confessional - These Bones Guitar Tab
album: shade of poison trees
Tabbed by Dave Cowan
date tabbed - oct 11 2007
standard tuning EADGBe

intro/between end of chorus + new verse

e-0--0-0--0-0--0-0--------------------|
B-0--0-0--0-0--0-0--------------------|
G-9--8-8--8-8--8-8--------------------|
D-9--9-9--9-9--9-9--------------------|
A-7--7-7--7-7--7-7--------------------|
E-9--9-9--9-9--9-9--------------------|


verse

e---------------------------------------------------|
B---------------------------------------------------|
G---------------------------------------------------|
D-9-------6-------4-------2-------------------------|
A-9-X 16--6-x 16--4-x 16--2-x 16--------------------|
E-7-------4-------2-------0-------------------------|
  ___________PM_________________

e---------------------------------------------------|
B---------------------------------------------------|
G---------------------------------------------------|
D-9--9-9--9-9--9-9----------------------------------|
A-9--9-9--9-9--9-9----------------------------------|
E-7--7-7--7-7--7-7----------------------------------|

another guitar does this in some parts of the verse


chorus

e---------------------------------------------------|
B---------------------------------------------------|
G---------------------------------------------------|
D-6-------2-------9---------------------------------|
A-6-x 16--2-x 16--9-x 32----------------------------|
E-4-------0-------7---------------------------------|

? 2nd guitars part?
e---------------------------------------------------|
B---------------------------------------------------|
G------------------------------8-----9--------------|
D-6-------2-------9-----11-----8-x 4-9-x 4----------|
A-6-x 16--2-x 16--9-x 4-11-x 4-6-----7--------------|
E-4-------0-------7-----9---------------------------|

verse again...

bridge

e---------------------------------------------------|
B---------------------------------------------------|
G---------------------------------------------------|
D-6------2------9-----------------------------------|
A-6-x 16-2-x 16-9-x 32------------------------------|
E-4------0------7-----------------------------------|

guitar 2 is pretty much the intro riff for the bridge thats changes

other than that, you guys have the whole thing from this, may not be right, but hey, its 
first tab out there of this awesome song :)

cheers - Dave