Dave Clark Five - Cant You See That Shes Mine Text Guitar Tab

Learn song with the online tabulature player
Can't You See That She's Mine
The Dave Clark Five
Written by Dave Clark and Mike Smith; released as a single with "Because" in 
the UK and "No Time To Lose" in the USA as B-sides

Intro:
G|------- ------- ------- -------|------- ------- ------- -------|
D|-------------------------------|-------------------------------|
A|--------0-------2---4----------|5------------------------------|
E|-------------------------------|-------------------------------|
                                          Whoa,   can't you   see

Verse:
G|------- ------- 5---5-- 7---5--|------- ------- ------- -------|
D|--------7---7------------------|5---5--------------------------|
A|5---5--------------------------|-------------------------------|
E|-------------------------------|------------3------------------|
                  that she's  mine,                   we've been to-


G|------- ------- 5---5-- 7---5--|------- ------- ------- -------|
D|--------7---7------------------|----------------3---3---5---3--|
A|5---5--------------------------|--------5---5------------------|
E|-------------------------------|3---3--------------------------|
  gether  for a   long, long  time,                   And yet they're


G|------- ------- 5---5-- 7---5--|------- ------- 5---5-- 7---5--|
D|--------7---7------------------|--------7---7------------------|
A|5---5--------------------------|5---5--------------------------|
E|-------------------------------|-------------------------------|
  tryin'      so  ve- ry      hard            to  pull us a - part.


G|------- ------- ------- -------|------- ------- ------- -------|
D|----------------5---5---7---5--|----------------5---5---7---5--|
A|--------7---7------------------|--------7---7------------------|
E|5---5--------------------------|5---5--------------------------|
                                              But we  don't   care


G|------- ------- 5---5-- 7---5--|------- ------- 5---5-- 7---5--|
D|--------7---7------------------|--------7---7------------------|
A|5---5--------------------------|5---5--------------------------|
E|-------------------------------|-------------------------------|
                  what they   say,                    we're gonna


G|------- ------- ------- -------|------- ------- ------- -------|
D|----------------3---3---5---3--|----------------3---3---5---3--|
A|--------5---5------------------|--------5---5------------------|
E|3---3--------------------------|3---3--------------------------|
  keep out        on      this way,                   And if they


G|------- ------- 5---5-- 7---5--|------- ------- ------- -------|
D|--------7---7------------------|----------------5---5---7---5--|
A|5---5--------------------------|--------7---7------------------|
E|-------------------------------|5---5--------------------------|
  break us    up,             you know    on- ly  break my    heart.
                                      they'll

G|------- ------- 5---5-- 7---5--|------- ------- 5---5-- 7---5--|
D|--------7---7------------------|--------7---7------------------|
A|5---5--------------------------|5---5--------------------------|
E|-------------------------------|-------------------------------|
                                                  Don't you   know

Verse:
G|------- ------- 5---5-- 7---5--|------- ------- ------- -------|
D|--------7---7------------------|----------------3---3---5---3--|
A|5---5--------------------------|--------5---5------------------|
E|-------------------------------|3---3--------------------------|
              I   love her    so,                     and I   will


G|------- ------- 5---5-- 7---5--|------- ------- ------- -------|
D|--------7---7------------------|----------------3---3---5---3--|
A|5---5--------------------------|--------5---5------------------|
E|-------------------------------|3---3--------------------------|
  never,  never   let her     go,                     No  matter


G|------- ------- 5---5-- 7---5--|------- ------- 5---5-- 7---5--|
D|--------7---7------------------|--------7---7------------------|
A|5---5--------------------------|5---5--------------------------|
E|-------------------------------|-------------------------------|
  what        the people  may say,            or  try to      do,


G|------- ------- ------- -------|------- ------- ------- -------|
D|----------------5---5---7---5--|----------------5---5---7---5--|
A|--------7---7------------------|--------7---7------------------|
E|5---5--------------------------|5---5--------------------------|
                                             'Cause can't you see


G|------- ------- 5---5-- 7---5--|------- ------- 5---5-- 7---5--|
D|--------7---7------------------|--------7---7------------------|
A|5---5--------------------------|5---5--------------------------|
E|-------------------------------|-------------------------------|
                  that she's  mine,                   we've been to-


G|------- ------- ------- -------|------- ------- ------- -------|
D|----------------3---3---5---3--|----------------3---3---5---3--|
A|--------5---5------------------|--------5---5------------------|
E|3---3--------------------------|3---3--------------------------|
  gether  for a   long, long  time,                   And it  will


G|------- ------- 5---5-- 7---5--|------- ------- ------- -------|
D|--------7---7------------------|----------------5---5---7---5--|
A|5---5--------------------------|--------7---7------------------|
E|-------------------------------|5---5--------------------------|
  stay that   way,            be- cause I know she loves me   too.


G|------- ------- 5---5-- 7---5--|------- ------- 5---5-- 7---7--|
D|--------7---7------------------|--------7---7------------------|
A|5---5--------------------------|5---5--------------------------|
E|-------------------------------|-------------------------------|
                                              Oh,     now!

Bridge:
G|------- ------- ------- -------|------- ------- ------- -------|
D|-------------------------------|-------------------------------|
A|-------------------------------|-------------------------------|
E|5---5---5---5---5---5---5---5--|3-/-5---5---5---5---5---5---5--|
      And people talk and try to  break us    up,     oh, well, we


G|------- ------- ------- -------|------- ------- ------- -------|
D|-------------------------------|-------------------------------|
A|3-/-5---5---5---5---5---5---5--|3-/-5---5---5---5---5---5---5--|
E|-------------------------------|-------------------------------|
  know    they don't under -  stand,                          But


G|------- ------- ------- -------|------- ------- ------- -------|
D|-------------------------------|-------------------------------|
A|5-/-7---7---7---7---7---7---7--|5-/-7---7---7---7---7---7---7--|
E|-------------------------------|-------------------------------|
  I       don't   care    what the people may say,    I'm gonna


G|------- ------- ------- -------|------- ------- ------- -------|
D|-------------------------------|-------------------------------|
A|-------------------------------|-------------------------------|
E|5---5---5---5---5---5---5---5--|5---5---5---5---5---5---5---5--|
  keep on         holding her hand.               Can't you   see

Verse:
G|------- ------- 5---5-- 7---5--|------- ------- ------- -------|
D|--------7---7------------------|5---5--------------------------|
A|5---5--------------------------|-------------------------------|
E|-------------------------------|------------3------------------|
                  that she's  mine,                   we've been to-


G|------- ------- 5---5-- 7---5--|------- ------- ------- -------|
D|--------7---7------------------|----------------3---3---5---3--|
A|5---5--------------------------|--------5---5------------------|
E|-------------------------------|3---3--------------------------|
  gether  for a   long, long  time,                   And yet they're


G|------- ------- 5---5-- 7---5--|------- ------- 5---5-- 7---5--|
D|--------7---7------------------|--------7---7------------------|
A|5---5--------------------------|5---5--------------------------|
E|-------------------------------|-------------------------------|
  tryin'      so  ve- ry      hard            to  pull us a - part.


G|------- ------- ------- -------|------- ------- ------- -------|
D|----------------5---5---7---5--|----------------5---5---7---5--|
A|--------7---7------------------|--------7---7------------------|
E|5---5--------------------------|5---5--------------------------|
                                              But we  don't   care


G|------- ------- 5---5-- 7---5--|------- ------- 5---5-- 7---5--|
D|--------7---7------------------|--------7---7------------------|
A|5---5--------------------------|5---5--------------------------|
E|-------------------------------|-------------------------------|
                  what they   say,                    we're gonna


G|------- ------- ------- -------|------- ------- ------- -------|
D|----------------3---3---5---3--|----------------3---3---5---3--|
A|--------5---5------------------|--------5---5------------------|
E|3---3--------------------------|3---3--------------------------|
  keep out        on      this way,                   And if they


G|------- ------- 5---5-- 7---5--|------- ------- ------- -------|
D|--------7---7------------------|----------------5---5---7---5--|
A|5---5--------------------------|--------7---7------------------|
E|-------------------------------|5---5--------------------------|
  break us    up,             you know    on- ly  break my    heart.
                                      they'll

G|------- ------- 5---5-- 7---5--|------- ------- 5---5-- 7---5--|
D|--------7---7------------------|--------7---7------------------|
A|5---5--------------------------|5---5--------------------------|
E|-------------------------------|-------------------------------|


Verse (solo):
G|------- ------- 5---5-- 7---5--|------- ------- ------- -------|
D|--------7---7------------------|----------------3---3---5---3--|
A|5---5--------------------------|--------5---5------------------|
E|-------------------------------|3---3--------------------------|



G|------- ------- 5---5-- 7---5--|------- ------- ------- -------|
D|--------7---7------------------|----------------3---3---5---3--|
A|5---5--------------------------|--------5---5------------------|
E|-------------------------------|3---3--------------------------|



G|------- ------- 5---5-- 7---5--|------- ------- 5---5-- 7---5--|
D|--------7---7------------------|--------7---7------------------|
A|5---5--------------------------|5---5--------------------------|
E|-------------------------------|-------------------------------|



G|------- ------- ------- -------|------- ------- ------- -------|
D|----------------5---5---7---5--|----------------5---5---7---5--|
A|--------7---7------------------|--------7---7------------------|
E|5---5--------------------------|5---5--------------------------|



G|------- ------- 5---5-- 7---5--|------- ------- 5---5-- 7---5--|
D|--------7---7------------------|--------7---7------------------|
A|5---5--------------------------|5---5--------------------------|
E|-------------------------------|-------------------------------|



G|------- ------- ------- -------|------- ------- ------- -------|
D|----------------3---3---5---3--|----------------3---3---5---3--|
A|--------5---5------------------|--------5---5------------------|
E|3---3--------------------------|3---3--------------------------|



G|------- ------- 5---5-- 7---5--|------- ------- ------- -------|
D|--------7---7------------------|7---7---7---7---7---7---7---7--|
A|5---5--------------------------|-------------------------------|
E|-------------------------------|-------------------------------|



G|------- ------- 5---5-- 7---5--|------- ------- 5---5-- 7---5--|
D|--------7---7------------------|--------7---7------------------|
A|5---5--------------------------|5---5--------------------------|
E|-------------------------------|-------------------------------|
                                                  Don't you   know

Verse:
G|------- ------- 5---5-- 7---5--|------- ------- ------- -------|
D|--------7---7------------------|5---5--------------------------|
A|5---5--------------------------|-------------------------------|
E|-------------------------------|----------------3-----------3--|
              I   love her    so,                     and     I'll


G|------- ------- 5---5-- 7---5--|------- ------- ------- -------|
D|--------7---7------------------|----------------3---3---5---3--|
A|5---5--------------------------|--------5---5------------------|
E|-------------------------------|3---3--------------------------|
  never,  never   let her     go,                     No  matter


G|------- ------- 5---5-- 7---5--|------- ------- 5---5-- 7---5--|
D|--------7---7------------------|--------7---7------------------|
A|5---5--------------------------|5---5--------------------------|
E|-------------------------------|-------------------------------|
  what        the people  may say,            or  try to      do,


G|------- ------- ------- -------|------- ------- ------- -------|
D|----------------5---5---7---5--|----------------5---5---7---5--|
A|--------7---7------------------|--------7---7------------------|
E|5---5--------------------------|5---5--------------------------|
                                         'Cause   can't you   see


G|------- ------- 5---5-- 7---5--|------- ------- 5---5-- 7---5--|
D|--------7---7------------------|--------7---7------------------|
A|5---5--------------------------|5---5--------------------------|
E|-------------------------------|-------------------------------|
                  that she's  mine,                   we've been to-


G|------- ------- ------- -------|------- ------- ------- -------|
D|----------------3---3---5---3--|----------------3---3---5---3--|
A|--------5---5------------------|--------5---5------------------|
E|3---3--------------------------|3---3--------------------------|
  gether  for a   long, long  time,                   And it  will


G|------- ------- 5---5-- 7---5--|------- ------- ------- -------|
D|--------7---7------------------|----------------5---5---7---5--|
A|5---5--------------------------|--------7---7------------------|
E|-------------------------------|5---5--------------------------|
  stay that   way,            be- cause I know she loves me   too,


G|------- ------- 5---5-- 7---5--|------- ------- 5---5-- 7---5--|
D|--------7---7------------------|--------7---7------------------|
A|5---5--------------------------|5---5--------------------------|
E|-------------------------------|-------------------------------|
                                                      And it  will

Outro:
G|------- ------- 5---5-- 7---5--|------- ------- ------- -------|
D|--------7---7------------------|-------------------------------|
A|5---5--------------------------|-------------------------------|
E|-------------------------------|5-----------5---5--------------|
  stay that   way,            be- cause I know she loves me   too.


G|------- ------- ------- -------|------- ------- ------- -------|
D|-------------------------------|-------------------------------|
A|5-------0-------2---4----------|5---------------5--------------|
E|-------------------------------|-------------------------------|

Please e-mail me for any corrections, or write a comment.