Dave Clark Five - Glad All Over Text Guitar Tab

Learn song with the online tabulature player
Glad All Over
The Dave Clark Five
Written by Dave Clark and Mike Smith; released as a single with "I Know You" 
as the B-side.

Intro:
G|------- ------- ------- -------|------- ------- ------- -------|
D|-------------------------------|-------------------------------|
A|-------------------------------|------------------------12\----|
E|-------------------------------|-------------------------------|
                      (drums)


G|------- ------- ------- -------|------- ------- ------- -------|
D|------------4---5-------5---5--|------------4---5-------5---5--|
A|5-------5----------------------|5-------5----------------------|
E|-------------------------------|-------------------------------|
                                              You say  that  you'll

Verse:
G|------- ------- ------- -------|------- ------- ------- -------|
D|------------4---5-------5---5--|------------4---5-------5---7--|
A|5-------5----------------------|5-------5----------------------|
E|-------------------------------|-------------------------------|
  love me                                         all  of    the
                 (say     you'll love me)

G|------- ------- ------- -------|------- ------- ------- -------|
D|------------4---5-------5---5--|------------4---5-------5---5--|
A|5-------5----------------------|5-------5----------------------|
E|-------------------------------|-------------------------------|
  time,                                       You say  that  you
                 (all of  the time)

G|------- ------- ------- -------|------- ------- ------- -------|
D|------------4---5-------5---5--|------------4---5-------5---7--|
A|5-------5----------------------|5-------5----------------------|
E|-------------------------------|-------------------------------|
  need me,                                    you'll always  be
                 (say     you need    me)

G|------- ------- ------- -------|------- ------- ------- -------|
D|------------4---5-------5---5--|-------------------------------|
A|5-------5----------------------|5------------------------------|
E|-------------------------------|-------------------------------|
  mine.                                   I'm     fee  -  lin'
                 (al - ways  be   mine)
Refrain:
G|------- ------- ------- -------|------- ------- ------- -------|
D|-------------------------------|-------------------------------|
A|-------------------------------|-------------------------------|
E|5-------5-------3-/-5---5---5--|3-/-5---5---5---3-/-5---5---5--|
                  glad    all o   -   ver,        yes, I'm    a-


G|------- ------- ------- -------|------- ------- ------- -------|
D|-------------------------------|-------------------------------|
A|5-------5-------4-/-5---5---5--|4-/-5---5---5---4-/-5---5---5--|
E|-------------------------------|-------------------------------|
                  glad    all o   -   ver,        Ba- by, I'm


G|------- ------- ------- -------|------- ------- ------- -------|
D|-------------------------------|-------------------------------|
A|-------------------------------|-------------------------------|
E|5-------5-------3-/-5---5---5--|3-/-5---5---5---3-/-5---5---5--|
                  glad    all o   -   ver, so     glad    you're


G|------- ------- ------- -------|------- ------- ------- -------|
D|------------4---5-------5---5--|------------4---5-------5---5--|
A|5-------5----------------------|5-------5----------------------|
E|-------------------------------|-------------------------------|
  mine.                                           I'll make  you

Verse:
G|------- ------- ------- -------|------- ------- ------- -------|
D|------------4---5-------5---5--|------------4---5-------5---7--|
A|5-------5----------------------|5-------5----------------------|
E|-------------------------------|-------------------------------|
  happy,                                      you'll never   be
                 (make    you hap  -  py)

G|------- ------- ------- -------|------- ------- ------- -------|
D|------------4---5-------5---5--|------------4---5-------5---5--|
A|5-------5----------------------|5-------5----------------------|
E|-------------------------------|-------------------------------|
  blue,                                           You'll have no
                 (ne - ver   be   blue)

G|------- ------- ------- -------|------- ------- ------- -------|
D|------------4---5-------5---5--|------------4---5-------5---5--|
A|5-------5----------------------|5-------5----------------------|
E|-------------------------------|-------------------------------|
  sorrow,                                'Cause I'll always  be
                 (have no     sor  -  row)

G|------- ------- ------- -------|------- ------- ------- -------|
D|------------4---5-------5---5--|-------------------------------|
A|5-------5----------------------|5------------------------------|
E|-------------------------------|-------------------------------|
  true.                                   I'm     fee  -  lin'
                 (al - ways   be  true)
Refrain:
G|------- ------- ------- -------|------- ------- ------- -------|
D|-------------------------------|-------------------------------|
A|-------------------------------|-------------------------------|
E|5-------5-------3-/-5---5---5--|3-/-5---5---5---3-/-5---5---5--|
                  glad    all o   -   ver,        yes, I'm    a-


G|------- ------- ------- -------|------- ------- ------- -------|
D|-------------------------------|-------------------------------|
A|5-------5-------4-/-5---5---5--|4-/-5---5---5---4-/-5---5---5--|
E|-------------------------------|-------------------------------|
                  glad    all o   -   ver,        Ba- by, I'm


G|------- ------- ------- -------|------- ------- ------- -------|
D|-------------------------------|-------------------------------|
A|-------------------------------|-------------------------------|
E|5-------5-------3-/-5---5---5--|3-/-5---5---5---3-/-5---5---5--|
                  glad    all o   -   ver, so     glad    you're


G|------- ------- ------- -------|------- ------- ------- -------|
D|------------4---5-------5---5--|------------4---5-------5---5--|
A|5-------5----------------------|5-------5----------------------|
E|-------------------------------|-------------------------------|
  mine.

Bridge:
G|------- ------- ------- -------|------- ------- ------- -------|
D|-------------------------------|-------------------------------|
A|------------5---8-------5---8--|------------5---8-------5---8--|
E|6-------6----------------------|6-------6----------------------|
          O- ther girls           may try     to  take me    a-


G|------- ------- ------- -------|------- ------- ------- -------|
D|------------4---5-------5---5--|-------------------------------|
A|5-------5----------------------|5-------5---5---5-------5---5--|
E|-------------------------------|-------------------------------|
  way,
                 (take me    a -  way)

G|------- ------- ------- -------|------- ------- ------- -------|
D|-------------------------------|-------------------------------|
A|-------------------------------|------------------------5------|
E|3---3---3---3---3-------3---3--|3-------3---3---3-----------3--|
          But you know,           it's by    your side I     will


G|------- ------- ------- -------|------- ------- ------- -------|
D|-------------------------------|-------------------------------|
A|-------------------------------|-------------------------------|
E|5---------------5----5-----5---|5---------------5----5-----5---|
  stay,           I          will stay.           Our  love  will

Verse:
G|------- ------- ------- -------|------- ------- ------- -------|
D|------------4---5-------5---5--|------------4---5-------5---5--|
A|5-------5----------------------|5-------5----------------------|
E|-------------------------------|-------------------------------|
  last now                                till the end       of
                 (our love will last)

G|------- ------- ------- -------|------- ------- ------- -------|
D|------------4---5-------5---7--|------------4---5-------5---7--|
A|5-------5----------------------|5-------5----------------------|
E|-------------------------------|-------------------------------|
  time,                                           Be - cause this
                 (end of      time)

G|------- ------- ------- -------|------- ------- ------- -------|
D|------------4---5-------5---5--|------------4---5-------5---5--|
A|5-------5----------------------|5-------5----------------------|
E|-------------------------------|-------------------------------|
  love now                            is  on- ly  yours      and
                 (because this love)

G|------- ------- ------- -------|------- ------- ------- -------|
D|------------4---5-------5---5--|-------------------------------|
A|5-------5----------------------|5------------------------------|
E|-------------------------------|-------------------------------|
  mine.                                   And I'm fee  -  lin'
                 (yours and   mine)
Refrain:
G|------- ------- ------- -------|------- ------- ------- -------|
D|-------------------------------|-------------------------------|
A|-------------------------------|-------------------------------|
E|5-------5-------3-/-5---5---5--|3-/-5---5---5---3-/-5---5---5--|
                  glad    all o   -   ver,        yes, I'm    a-


G|------- ------- ------- -------|------- ------- ------- -------|
D|-------------------------------|-------------------------------|
A|5-------5-------4-/-5---5---5--|4-/-5---5---5---4-/-5---5---5--|
E|-------------------------------|-------------------------------|
                  glad    all o   -   ver,        Ba- by, I'm


G|------- ------- ------- -------|------- ------- ------- -------|
D|-------------------------------|-------------------------------|
A|-------------------------------|-------------------------------|
E|5-------5-------3-/-5---5---5--|3-/-5---5---5---3-/-5---5---5--|
                  glad    all o   -   ver, so     glad    you're


G|------- ------- ------- -------|------- ------- ------- -------|
D|------------4---5-------5---5--|------------4---5--------------|
A|5-------5----------------------|5-------5----------------------|
E|-------------------------------|----------------------------5--|
  mine.

Bridge:
G|------- ------- ------- -------|------- ------- ------- -------|
D|-------------------------------|-------------------------------|
A|------------5---8-------5---8--|------------5---8-----------12\|
E|6-------6----------------------|6-------6----------------------|
          O- ther girls           may try     to  take me    a-


G|------- ------- ------- -------|------- ------- ------- -------|
D|------------4---5-------5---5--|-------------------------------|
A|5-------5----------------------|5-------5---5---5-------5---5--|
E|-------------------------------|-------------------------------|
  way,
                 (take me    a -  way)

G|------- ------- ------- -------|------- ------- ------- -------|
D|-------------------------------|-------------------------------|
A|-------------------------------|-------------------------------|
E|3-------3---3---3-------3---3--|3-------3---3---3-------3---3--|
          But you know,           it's by    your side I     will


G|------- ------- ------- -------|------- ------- ------- -------|
D|-------------------------------|-------------------------------|
A|-------------------------------|-------------------------------|
E|5---------------5----5-----5---|6---------------6----6-----6---|
  stay,           I          will stay.           Our  love  will

Verse:
G|------- ------- ------- -------|------- ------- ------- -------|
D|------------5---6-------6---6--|------------5---6-------6---6--|
A|6-------6----------------------|6-------6----------------------|
E|-------------------------------|-------------------------------|
  last now                                till the end       of
                 (our love will last)

G|------- ------- ------- -------|------- ------- ------- -------|
D|------------5---6-------6---6--|------------5---6-------6---8--|
A|6-------6----------------------|6-------6----------------------|
E|-------------------------------|-------------------------------|
  time,                                           Be - cause this
                 (end of      time)

G|------- ------- ------- -------|------- ------- ------- -------|
D|------------5---6-------6---6--|------------5---6-------6---5--|
A|6-------6----------------------|6-------6----------------------|
E|-------------------------------|-------------------------------|
  love now                            is  on- ly  yours      and
                 (because this love)

G|------- ------- ------- -------|------- ------- ------- -------|
D|------------5---6-------6---8--|-------------------------------|
A|6-------6----------------------|6------------------------------|
E|-------------------------------|-------------------------------|
  mine.                                   And I'm fee  -  lin'
                 (yours and   mine)
Refrain:
G|------- ------- ------- -------|------- ------- ------- -------|
D|-------------------------------|-------------------------------|
A|-------------------------------|-------------------------------|
E|6-------6-------4-/-6---6---6--|4-/-6---6---6---4-/-6---6---6--|
                  glad    all o   -   ver,        yes, I'm    a-


G|------- ------- ------- -------|------- ------- ------- -------|
D|-------------------------------|-------------------------------|
A|6-------6-------5-/-6---6---6--|5-/-6---6---6---5-/-6---6---6--|
E|-------------------------------|-------------------------------|
                  glad    all o   -   ver,        Ba- by, I'm


G|------- ------- ------- -------|------- ------- ------- -------|
D|-------------------------------|-------------------------------|
A|-------------------------------|-------------------------------|
E|6-------6-------4-/-6---6---6--|4-/-6---6---6---4-/-6---6---6--|
                  glad    all o   -   ver, so     glad    you're


G|------- ------- ------- -------|------- ------- ------- -------|
D|------------5---6-------6---6--|------------5---6-------6---6--|
A|6-------6----------------------|6-------6----------------------|
E|-------------------------------|-------------------------------|
  mine.                                       I'm so   glad  you're

Outro:
G|------- ------- ------- -------|------- ------- ------- -------|
D|----------------6-------6---6--|------------5---6-------6---6--|
A|6-------6----------------------|6-------6----------------------|
E|-------------------------------|-------------------------------|
  mine    now,                        I  said I'm            so
  aaaaaaaaaaaaaaaaaaaaaaaaaaaaaaaaaaaaaaaaaaaaaaaaaaaaaaaaa

G|------- ------- ------- -------|------- ------- ------- -------|
D|------------5---6-------6---6--|------------5---6-------6---6--|
A|6-------6----------------------|6-------6----------------------|
E|-------------------------------|-------------------------------|
  glad you're mine,                       I'm a-  so  glad    you're
  aaaaaaaaaaaaaaaaaaaaaaaaaaaaaaaaaaaaaaaaaaaaaaaaaaaaaaaaa

G|------- ------- ------- -------|------- ------- ------- -------|
D|------------5---6-------6---6--|------------5---6-------6---6--|
A|6-------6----------------------|6-------6----------------------|
E|-------------------------------|-------------------------------|
  mine now,                            woah, woah, woah, woah, woah,
  aaaaaaaaaaaaaaaaaaaaaaaaaaaaaaaaaaaaaaaaaaaaaaaaaaaaaaaaa

G|------- ------- ------- -------|------- ------- ------- -------|
D|------------5---6-------6---6--|-------------------------------|
A|6-------6----------------------|6---6---6---6------------------|
E|-------------------------------|-------------------------------|
  woah.
  aaaaaaaaaaaaaaaaaaaaaaaaaaaaaaaaa

Please e-mail me for any corrections, or write a comment.