Dave Clark Five - Over And Over Text Guitar Tab

Learn song with the online tabulature player
this is the tab for the harmonica solo in over and over by the dave clark five really 
and fun to do

e---10~--10~--10-8-6~--8-8-8-6-8-10~---| ~-wingle note a bit and let ring when
b--------------------------------------|   you see this symbol in tab
g--------------------------------------|
d--------------------------------------|
a--------------------------------------|
e--------------------------------------|

e---10-13~--10-13~-10~--10-8-6~--8-8-8-|
b--------------------------------------|
g--------------------------------------|
d--------------------------------------|
a--------------------------------------|
e--------------------------------------|

e---6-8-6/-----------------------------| /-slide
b--------------------------------------|
g--------------------------------------|
d--------------------------------------|
a--------------------------------------|
e--------------------------------------|

just in case you don't know the progression of song is Bb and F
also really fun when you are playing F chord to do runs with chords or notes back to the 
chord for example

e-1-1-1-1-----------------------------|
b-1-1-1-1-----------------------------|
g-2-2-2-2-----------------------------|
d-3-3-3-3-----------------------------|
a-3-3-3-3-----------------------------|
e-1-1-1-1-3-5-6-----------------------| hope you enjoy my first tab posted