Dave Dee Dozy Beaky Mick And Tich - Hold Tight Text Guitar Tab

Learn song with the online tabulature player
Dave Dee, Dozy, Beaky, Mick & Tich: Hold Tight

Tabbed by Julian Habenicht

E-Mail: solveberg@gmail.com


|-------------------------------------------------|
|Update 06-14-2012: Added better tab              |
|-------------------------------------------------|


Chord progression above the tab.

     E          A           B     A      E       A         B     A

e----------------------------------------------------------------------|
B-10-10b12-b12-(9)b10-b10r9--------------------------------------------|
G---------------------------8~--8/9-11-9-------------------------------|
D----------------------------------------7b9-b9-(6)b7-b7r6-------------|
A----------------------------------------------------------6~--6/7-9-7-|
E----------------------------------------------------------------------|

  E          A           B     A      E

e-------------------------------------------------------|
B-10b12-b12-(9)b10-b10r9--------------------------------|
G------------------------8~--8/9-11-9-------------------|
D-------------------------------------2-----------------|
A-------------------------------------2-----------------|
E-------------------------------------0-----------------|


Personally, I think it's the best sounding solo ever....;)

Have fun!!!