Dave Gahan - A Little Lie Text Guitar Tab

Learn song with the online tabulature player
Artist: Dave Gahan
Album: Hourglass (2003)
Title: "A Little Lie"

I wonder why nobody made a tab before. I always wanted to learn this part of this 
song but I haven't found anything but chords.
So I made my own tab ;)

Enjoy.

Any questions to: janine_g1989@hotmail.de


e|------12--8--15-----10----------|
b|--10-------------8--------------|
G|--------------------------------| 3x then
D|--------------------------------|
A|--------------------------------|
E|--------------------------------|

e|------12--8--15-----------------|
b|--10-------------8--------------|
G|--------------------------------| 1x
D|--------------------------------|
A|--------------------------------|
E|--------------------------------|