Dave Gahan - Bottle Living Text Guitar Tab

Learn song with the online tabulature player
This bass part has an interesting mixture of electronic sequence style and blues 
drive. Try to play it! I think it's not difficult :)


Intro & couplets:
G|----------------------------|------------------------------|
D|-----------------5-5--------|-----------5-5----------------|
A|-----7-p-7---7-5-----7----7-|---7---7-5-----7----7-p-7---7-|
E|-0-0-------0-----------0-0--|-p---0-----------0-0-------0--|

G|----------------------------|
D|---5-5----------------5-5---|
A|-5-----7----7-p-7-7-5-----7-|
E|---------0-0-----0----------|


Chorus:
G|----------------------------|------------------------------|
D|------------5---5-5-5-----7-|-----7---5-7-------------5----|
A|-----7-p-7------------------|-----------------7-p-7--------|
E|-0-0-------3---3------5-5---|---5---5-----0-0-------3------|

G|----------------------------|
D|---5-5-5-----7-----7---5-7--|
A|----------------------------|
E|-3-------5-5-----5---5------|


That's all! :)