Dave Matthews Band - I Did It Text Guitar Tab

Learn song with the online tabulature player
sorry about my last tab submit..there was a mistake in the intro:

it read:
e-----7/-----------------7/------------------------------------------|
B-----7/-----------------7/------------------------------------------|
G--------------------------------------------------------------------|
D--------------------------------------------------------------------|
A---------3-x-5-x-7-x-3-x-5--55-------3-x-5-x-7-x-3-x-5--------------|
E-00------x-x-x-x-x-x-x-x-x-----------x-x-x-x-x-x-x-x-x--------------|

it should have been:
e-----7/-------------------------7/----------------------------------|
B-----7/-------------------------7/----------------------------------|
G--------------------------------------------------------------------|
D--------------------------------------------------------------------|
A---------3-x-5-x-7-x-3-x-5--5-5------3-x-5-x-7-x-3-x-5--------------|
E-00------x-x-x-x-x-x-x-x-x-----------x-x-x-x-x-x-x-x-x--------------|

sorry for any confusion or inconvience
Adam1186@aol.com for comments