Dave Matthews Band - Shake Me Like A Monkey Acoustic Text Guitar Tab

Learn song with the online tabulature player
tabbed by greg
this is my first tab...i got it from the vegas video on youtube links at the bottom i 
recommend watching it to see how he plays it.


drop d

intro
e-----------------------------------|
b-----------------------------------|
g-----------------------------------|
d---3/5---3/4--1------3-------------|x2
a---------------1------3----3-------|
d-5-----3-----1---1-3---3-5---5-3---|


verse
e----------------------|
b----------------------|
g----------------------|
d----------------------|
a----------------------|
d-0-0-3-3-5-0-0-3-5----|

e-----------------------|
b-------------------5-3-|
g-------------------5-3-| as many times as
d-------------------5-3-|necessary
a-----------------------|
d-0-0-3-3-5-0-0-3-5-----|

chorus

e-----------------------------------|
b-----------------------------------|
g-----------------------------------|
d---3/5---3/4--1-3------------------|x4
a--------------1-3------3-----------|
d-5-----3------1-3--3-5---5-3-------|

bridge
e--------------------------|
b--3-----------3-----------|
g--x-----------x-----------|
d--4--4/5-5/7--4--4/5-4-4--|x2
a--5--2/3------5--2/3------|
d---------------------2/3--|

verse
chorus
verse


http://www.youtube.com/watch?v=Xj1Mvv-71dQ