Dave Matthews Band - Space Between Acoustic Text Guitar Tab

Learn song with the online tabulature player
-------------------------------------------------------------------------------
                             Space Between-Dave Matthews Band
-------------------------------------------------------------------------------
Tabbed by:burgurhead1812


Tuning:standard

i was messing around with my guitar and figured out this song using a different 
chord than ive seen in any other tab and i thought it was easier and sounds 
perfect. listen to the song for timing.

verse:
e|--------------------------------------------------------------------------|
B|--------------------------------------------------------------------------|
G|-------2----------2----------2----------2---------------------------------|
D|-6-6-6-0----6-6-6-0----6-6-6-0----6-6-6-0---------------------------------|
A|-7-7-7-x----7-7-7-x----7-7-7-x----7-7-7-x---------------------------------|
E|-4-4-4-2----4-4-4-2----4-4-4-2----4-4-4-2---------------------------------|

prechorus/chorus
e|--------9------9------9h10--9-------9------9h10--9------9------9h10--9------9--------|
B|----------10-----10-----------10------10-----------10-----10-----------10-----10---9-|
G|-------------9------9------------9-------9------------9------9------------9------9---|
D|-6-6-6-------------------------------------------------------------------------------|
A|-7-7-7-------------------------------------------------------------------------------|
E|-4-4-4-------------------------------------------------------------------------------|