David Cook - Fall Back Into Me Chords

 
No chord
    
Drop D guitar tuning
No capo

Verse

e|--------------------------|
B|--------------------------|
G|-----3------3------3----3-|
D|---3-3----3-3----3-3--3-3-| do this twice
A|-1------1-----------------|
D|---------------1-----3----|
We've been here before.....

Refrain

e|---------------------------------------------------------------------------|
B|---------------------------------------------------------------------------|
G|---------------------------------------------------------------------------|
D|33333333---5555555555----3333333333---1111111111---------------------------|
A|33333333---5555555555----3333333333---1111111111---------------------------|
E|33333333---5555555555----3333333333---1111111111---------------------------|
  xxxxxxxx   xxxx xxxx     xxxx xxxx    xxxx xxxx
It could have been different....
e|---------------------------------------------------------------------------|
B|---------------------------------------------------------------------------|
G|---------------------------------------------------------------------------|
D|3333333333-----------------------------------------------------------------|
A|3333333333-----------------------------------------------------------------|
E|3333333333-----------------------------------------------------------------|
xxxx xxxx

Chorus

e|---------------------------------------------------------------------------|
B|---------------------------------------------------------------------------|
G|3333333333333333-----------------------------------------------------------|
D|3333333333333333-----1111111111111111-5555555555555555--3333333333333333---|
A|1111111111111111-----1111111111111111-5555555555555555--3333333333333333---|
E|---------------------1111111111111111-5555555555555555--3333333333333333---|
When everything's the same.... do the chorus twice
Interlude/verse 2:
e|---------------------------------------------------------------------------|
B|---------------------------------------------------------------------------|
G|33333333333333333333333333333333-------------------------------------------|
D|33333333333333333333333333333333--55555555555555--666666666666666----------|
A|11111111111111111111111111111111--55555555555555--666666666666666----------|
E|----------------------------------55555555555555--666666666666666----------|

Bridge

do this twice
e|---------------------------------------------------------------------------|
B|---------------------------------------------------------------------------|
G|---------------------------------------------------------------------------|
D|55555555555555555555555555555-7-111111111111111111111111111111111-3-5------|
A|55555555555555555555555555555-7-111111111111111111111111111111111-3-5------|
E|55555555555555555555555555555-7-111111111111111111111111111111111-3-5------|
after the bridge play the chorus until the end... just listen to the song for the exact strumming and timing.. rock on guys... | / slide up | \ slide down | h hammer-on | p pull-off | ~ vibrato | + harmonic | x Mute note

All Content on this page is the property of the copyright owner of the original composition.