David Crowder Band - Open Skies Text Guitar Tab

Learn song with the online tabulature player
David Crowder - Open Skies

Intro

e------------------0----------------------|
B-----8----7------7--------5---3----------|
G-----0----0----0----------0---0----------|
D----9-----7---7-7--------5---------------|
A-0h7------5--5--------0h3-----3----------|
E-----------------------------------------|

e-----------------------------------------|
B-----8----7---------------5------2p0-----|
G-----0----0---------------0---------4p0--|
D----9-----7--------------5------5--------|
A-0h7------5-----------0h3----0\5---------|
E-----------------------------------------|

Verse

e-----------------------------------------|
B-----8----7---------------5---3----------|
G-----0----0---------------0---0----------|
D----9-----7--------------5---------------|
A-0h7------5-----------0h3-----3----------|
E-----------------------------------------|

Pre-Chorus
G/B C2

Chorus / Refrain
G D C