David Gilmour - Where We Start Text Guitar Tab

Learn song with the online tabulature player
This is very close to how Dave plays it. There were a couple of chords I couldn't see 
playing in the video, but I think this is a little more accurate than most of the other 
I've looked at online.

Intro:
2----0----2----0----2----0----0--0--0----0--0--0----0----|
3----2----3----2----3----2----1--1--0----1--1--0----0----|
4----2----4----2----4----2----2--2--0----2--2--0----4----|
5----4----5----4----5----4----2--0--2----2--0--2----2----|
X----4----X----4----X----4----0--0--2----0--0--2----2----|
X----X----X----X----X----X----X--X--0----X--X--0----0----|

Verse (2 times):
0----0----2----0----0----0----2----0----0----|
2----2----3----2----2----2----3----1----1----|
2----1----4----2----2----1----4----0----0----|
2----2----5----4----2----2----5----2----2----|
0----0----X----4----0----0----X----3----3----|
X----X----X----X----X----X----X----3----3----|

Chorus:
2----0----0----2----2----0----0--0--0----0--0--0----0----|
3----3----2----3----3----3----1--1--0----1--1--0----0----|
4----4----2----2----4----4----2--2--0----2--2--0----4----|
4----4----4----0----4----4----2--0--2----2--0--2----2----|
2----X----4----X----2----X----0--0--2----0--0--2----2----|
2----3----0----X----2----3----X--X--0----X--X--0----0----|

Repeat Verse (1 time)
Repeat Chorus (1 time)
Solo (Repeat Verse and Chorus 1 time)
Repeat Verse (1 time)
Repeat Chorus (1 time)

Chorus (Key Change):
4----0----4----0----4----0----2----0----2----0----|
5----5----4----0----5----5----3----2----3----2----|
6----6----4----4----6----6----4----2----4----2----|
6----6----6----2----6----6----5----4----5----4----|
4----X----6----2----4----X----X----4----X----4----|
4----5----4----0----4----5----X----X----X----X----|

Repeat to End:
2----0----|
3----2----|
4----2----|
5----4----|
X----4----|
X----X----|