David Pack - I Just Cant Let Go Text Guitar Tab

Learn song with the online tabulature player
JUST CANT LET GO
DAVID PACK
Tab: avill616@yahoo.com

Intro:           
G|----------------------------------|
D|----------------------------------|
A|--------------------------------7-|
E|-0--0-0--5--5-5--0--0-0--5--5-5---|

Verse:
G|-------------------------------|-----------------------------------|
D|-------------------------------|-----------------------------------|
A|------------------------2--2-2-|--------------------------2---2--4-|
E|-0--0-0--5--5-5--0--0-0--------|-0--0-0--5--5-5--5-0--0-0----------|

Pre Chorus:
G|----------------------------------|---------------------------------|
D|----------------------------------|---------------------------------|
A|-------------------4--4-4--4--4-4-|--------0--0-0--2--2-2---2--4--6-|
E|-4--4-4--4--4-4--4----------------|-2--2-2--------------------------|

Chorus:
G|--------------------------------|
D|--------------------------------|
A|-----------------4--4-4--0--0-0-|
E|-0--0-0--4--4-4-----------------|

G|-------------------------------------------------|
D|-------------------------------------------------|
A|-----4-4-----2-2---------------------------------|
E|-4-4-----2-2------5--5-5--0--0-0--5--5-5--0--0-0-|

Repeat verse prechorus chorus

Bridge
G|-------------------------------------|---------------------------|
D|-------------------------------------|---------------------------|
A|-------------------------------------|---------------------------|
E|-2--2-2--4--4-4--5--5-5---5-5-5--5-5-|-2--2-2--4--4-4--5--5-5--7-|

Instrumental:
G|--------------------------------------|
D|--------------------------------------|
A|--------------------------------------| 
E|-0--0-0--5--5-5--5-0-0--0-0--0-5--5-5-|

Pre Chorus
G|---------------------------------|
D|---------------------------------|
A|--------0--0-0--2--2-2---2--4--6-|
E|-2--2-2--------------------------|

Chorus:
G|--------------------------------|
D|--------------------------------|
A|-----------------4--4-4--0--0-0-|
E|-0--0-0--4--4-4-----------------|

G|-----------------------------------|
D|-----------------------------------|
A|-----4-4-----2-2------4-4------2-2-|
E|-4-4-----2-2------4-4------2-2-----|

Ending: 
G|--------------------------------|
D|--------------------------------|
A|--------------------------------|
E|-5--5-5--0--0-0--5--5-5--0--0-0-|  till fade