David Usher - Alone In The Universe Text Guitar Tab

Learn song with the online tabulature player
Hi the rhythm is already here on UG so I just thought I would add the little solo to what 
is a great song.

e-------------------------------------------------------------|
B-------------------------------------------------------------|
G----9--9--9--9--9--12--9------9--9--9--9--9--9--12--9------9-|
D--------------------------12---------------------------12----|
A-------------------------------------------------------------|
E-------------------------------------------------------------|

e----------------------------------|
B-------------------8b10-----------|
G----9/7----------7-----9-9-10-9---| X2
D--------10--7h10------------------|
A----------------------------------|
E----------------------------------|

The ending solo is very similar, so just mess around with this same sort of structure.

Any questions or comments email me at zoolake@gmail.com. I hope you like it and keep listening
to good music!