Dawn - Bawat Bata Text Guitar Tab

Learn the song with the online tablature player
Intro
G|----------------|
D|----------------|
A|----------------|
E|-3-33-3-33-3-33-|

Verse I
G|----|----|----|---|-------|-------|
D|----|----|----|---|---2-3-|-------|
A|-33-|----|----|-3-|-3-----|---2-3-|
E|----|-33-|-11-|---|-------|-3-----|

G|----|----|----|---|-------|-------|
D|----|----|----|---|---2-3-|-------|
A|-33-|----|----|-3-|-3-----|---2-3-|
E|----|-33-|-11-|---|-------|-3-----|

G|----|----|----|---|-------|-------|
D|----|----|----|---|---2-3-|-------|
A|-33-|----|----|-3-|-3-----|---2-3-|
E|----|-33-|-11-|---|-------|-3-----|

G|----|----|----|---|-------|-------|
D|----|----|----|---|---2-3-|-------|
A|-33-|----|----|-3-|-3-----|---2-3-|
E|----|-33-|-11-|---|-------|-3-----|

Chorus
G|-----------------------|-----------------------|
D|-----------------------|-----------------------|
A|--------5555-/10101010-|--------5555-/10101010-|
E|-5555-7----------------|-5555-7----------------|

G|----------------|-------------|---------------------------------|
D|----------------|-------------|---------------------------------|
A|----55-/1010-77-|---------/77-|-----------------/10101010101010-|
E|-55-------------|-5555-77-----|-5555555-7777777-----------------|

Verse II
G|----|----|----|---|-------|-------|
D|----|----|----|---|---2-3-|-------|
A|-33-|----|----|-3-|-3-----|---2-3-|
E|----|-33-|-11-|---|-------|-3-----|

G|----|----|----|---|-------|-------|
D|----|----|----|---|---2-3-|-------|
A|-33-|----|----|-3-|-3-----|---2-3-|
E|----|-33-|-11-|---|-------|-3-----|

G|----|----|----|---|-------|-------|
D|----|----|----|---|---2-3-|-------|
A|-33-|----|----|-3-|-3-----|---2-3-|
E|----|-33-|-11-|---|-------|-3-----|

G|----|----|----|---|-------|-------|
D|----|----|----|---|---2-3-|-------|
A|-33-|----|----|-3-|-3-----|---2-3-|
E|----|-33-|-11-|---|-------|-3-----|

Repeat Chorus 2x

Bridge
G|----------------|
D|----------------|
A|----------------|
E|-3-33-3-33-3-33-|

Repeat Verse and Chorus