Dawn - Tulad Ng Dati Text Guitar Tab

Learn song with the online tabulature player
The dawn
tulad ng dati
tabbed by james omalin

Legend:
P.M-Palmute
*-Harmonic
b-Bend

Intro:
|----------------------------------------------|
|4-5--4-5-7-5--4-5--4-5-7-5--4-2-4-2--4-2-4-2--| x4
|----------------------------------------------|
|----------------------------------------------|
|----------------------------------------------|
|----------------------------------------------|
PM.
verse1&2

|----------------------------------------------4-|
|4-5--4-5-7-5--4-5--4-5-7-5--4-2-4-2--4-2-4-2-4--|
|--------------------------------------------4---| repeat until refrain
|------------------------------------------------|
|------------------------------------------------|
|------------------------------------------------|

refrain.(Em-C#m-A)

chorus.(E5-C#5-A5)

adlib
|------7-7-9-9-----|
|---7-9-------9-7--| x3
|6-8---------------|
|------------------|
|------------------|
|------------------|

|7-----9-7----|
|-9-7-7---9-7-|
|----9--------|
|-------------|
|-------------|
|-------------|

Repeat refrain& chorus

outro
riff 1

|--------------------------------7-9--7-9-11-9-7-9-7-----------9----------|
|-------12-12-10-7-9-7--------7-9---9----9----------9-7-9-7-9-7--9-7-9-7--|
|12bfull--------------8-6--6-8------------------------------------------8-|
|-------------------------------------------------------------------------|
|-------------------------------------------------------------------------|
|-------------------------------------------------------------------------|

riff 2

|-------14-17-14-15-14-----19-16-17-16-----21-18-19-18-19-18-------|
|--12-15--------------15--------------17--------------------19-----|
|12---------------------14--------------16--------------------18---|
|------------------------------------------------------------------|
|------------------------------------------------------------------|
|------------------------------------------------------------------|

riff 3
                       *
|--------13-15-17-15-13--|
|13-15-17--------------9-|
|------------------------|
|------------------------|
|------------------------|
|------------------------|