DC Talk - Like It Love It Need It Text Guitar Tab

Learn song with the online tabulature player
Like It, Love It, Need It
dc Talk
Jesus Freak     
tabbed by jared gardner     punkrawkfreak@hotmail.com

this song is like five and a half minutes long, so it's easier to
just memorize the parts first, then work on the playing order

verse 
G|---------------------------------|
D|---------------------------------|
A|---------------------------------|
E|-0-0-0-0-0-0-0-0-7-7-7-5-5-5-3-3-|

prechorus
G|--------------------------------|
D|--------------------------------|
A|--------------------------------|
E|-0-0-0-0-0-0-0-0-3-------5------|

chorus
G|-----------------------------------------------------------------|
D|-----------------------------------------------------------------|
A|-----------------------------------------------------------------|
E|-0-0-0-0-0-0-0-0-2-2-2-2-2-2-2-2-3-3-3-3-3-3-3-3-5-5-5-5-5-5-5-5-|

after the rap part (we'll call it post-rap - hehe)
G|--------------------------------|
D|--------------------------------|
A|--------------------------------|
E|-0-------2-------3-------5------|

outtro
G|--------------------------------|
D|--------------------------------|
A|--------------------------------|
E|-0-0-----3-3-----5-5-----3-3----|

finally . . . the playing order

verse - 8x
prechorus - 4x
chorus - 3x
verse - 10x
prechorus - 4x
chorus - 4x
don't play anything during the rap part
post-rap riff - 4x
chorus - 6x
outtro - 4x
end on open E

well, there it is, kinda complicated the first couple times, but
it gets easier, so . . . punk/alternative/swing/ska tabs and any
birthday presents you feel led to send: punkrawkfreak@hotmail.com
(oh, by the way, questions and comments are okay, too)