Dead Milkmen - Deans Dream Text Guitar Tab

Learn song with the online tabulature player
-----------------------------------------------------------------------------
			     Dead Milkmen - Dean's Dream
-----------------------------------------------------------------------------

Tabbed By : Extra Blood
e-mail: Lenda@ofir.dk

Tuning:E A D G

Verse/Intro
G|--------------|--------------|----------------------|--------------|-------|
D|--------------|*------------*|-0--(0)---------------|*------------*|-0-----|
A|--------------|*------------*|----------------------|*------------*|---0---|
E|-2-2--1/2-2-2-|-2-2--1/2-2-2-|---------2-2--1/2-2-2-|-2-2--1/2-2-2-|-----0-|

G|--------------|--------------|----------------------|--------------|-------|
D|--------------|--------------|-0--(0)---------------|*------------*|-0-----|
A|--------------|--------------|----------------------|*------------*|---0---|
E|-2-2--1/2-2-2-|-2-2--1/2-2-2-|---------2-2--1/2-2-2-|-2-2--1/2-2-2-|-----0-|

G|--------------|
D|--------------|
A|--------------|
E|-2-2--1/2-2-2-|

Chorus
G----|---------------|-------------|
D*---|---------------|------------*|
A*-4-|-5-55-0-00-5-7-|-7-7-8-9-99-*|
E----|---------------|-------------|

G--------------------|
D--------------------|
A-5-55-0-00-5-h7-(7)-|
E--------------------|

Verse
G|--------------|--------------|----------------------|--------------|-------|
D|--------------|*------------*|-0--(0)---------------|*------------*|-0-----|
A|--------------|*------------*|----------------------|*------------*|---0---|
E|-2-2--1/2-2-2-|-2-2--1/2-2-2-|---------2-2--1/2-2-2-|-2-2--1/2-2-2-|-----0-|

G|--------------|--------------|----------------------|--------------|-------|
D|--------------|*------------*|-0--(0)---------------|*------------*|-0-----|
A|--------------|*------------*|----------------------|*------------*|---0---|
E|-2-2--1/2-2-2-|-2-2--1/2-2-2-|---------2-2--1/2-2-2-|-2-2--1/2-2-2-|-----0-|

Chorus
G|----|---------------|-------------|
D|*---|---------------|------------*|
A|*-4-|-5-55-0-00-5-7-|-7-7-8-9-99-*|
E|----|---------------|-------------|

G|--------------------|
D|--------------------|
A|-5-55-0-00-5-h7-(7)-|
E|--------------------|

Short Pre-Outro
G|----------------|
D|*--------------*|
A|*-9-9--8/9-9-9-*|
E|----------------|

Outro
G----|---------------|-------------|
D*---|---------------|------------*|
A*-4-|-5-55-0-00-5-7-|-7-7-8-9-99-*|
E----|---------------|-------------|

G---|---------------|------------------|
D---|---------------|------------------|
A-4-|-5-55-0-00-5-7-|-7--7--8--9---(9)-|
E---|---------------|------------------|