Dead Milkmen - Punk Rock Girl Text Guitar Tab

Learn song with the online tabulature player
-----------------------------------------------------------------------------
			     Dead Milkmen - Punk Rock Girl
-----------------------------------------------------------------------------

Tabbed By : Extra Blood
e-mail: Lenda@ofir.dk

Tuning:E A D G

Intro
G-----------------|---------------|-----------------|---------------| 
D-----------------|---------------|-----------------|---------------| 
A-----------------|---------------|-----------------|-5-5-5-5-5-5-5-| 
E-1-1-1-1-1-1-1-1-|-1-1-1-1-1-1-1-|-1-1-1-1-1-1-1-1-|---------------| 

G-----------------|---------------|--------------|-------5-3-2---| 
D-----------------|---------------|-----3------3-|----3--------5-| 
A-----------------|---------------|-5------1-----|-3-------------| 
E-1-1-1-1-1-1-1-1-|-1-1-1-1-1-1-1-|--------------|---------------| 

Verse
G-----------------|------------------|-----------------|-----------------| 
D-3-3-3-3-3-3-3-3-|----------------2-|-3-3-3-3-3-3-3-3-|-----------------| 
A-----------------|-1-1-1-1-0-0-0----|-----------------|-1-1-1-1-3-3-3-3-| 
E-----------------|------------------|-----------------|-----------------| 

Chorus 
G-------------|------------------|----5-3-2---| 
D-------------|----2-0-----------|-3--------5-| 
A-5-5-1-1-0-1-|-3-------0-1--1-3-|------------| 
E-------------|------------------|------------| 

-Verse
-Chorus

Break 
G----------------|----------3-2----| 
D*--------------*|----2--5-------5-| 
A*--------------*|-3---------------| 
E--8-/-3--8-/-3--|-----------------|

-Verse
-Chorus
-Guitar Solo (Play The Verse And Chorus)
-Break
-Verse

Chorus/Outro
G-------------|--------------------|----5-3-2-0-----| 
D-------------|*----2-0-----------*|-3----------0-3-| 
A-5-5-1-1-0-1-|*-3-------0-1--1-3-*|----------------| 
E-------------|--------------------|----------------|