Dead Milkmen - Serrated Edge Text Guitar Tab

Learn song with the online tabulature player
-----------------------------------------------------------------------------
			Dead Milkmen - Serrated Edge
-----------------------------------------------------------------------------

Tabbed By : Jared
e-mail: XX1134XX@YAHOO.COM

Tuning: Standard

=============================================================================

VERSE I                             VERSE II 

G------------------------------||----------------6^7-7-7---6^7-7-7--| 
D----------------6-7-9-7-6-7-7-||-6^7--7-7--7-7---------------------| 
A-5\7--7-7--7-7----------------||-----------------------------------| 
E------------------------------||-----------------------------------| 

CHORUS 

G-----------------------------------------------------| 
D-----------------------------------------------------| 
A----6-7-9-7-6----6-7-9-7-6---------------------------| 
E-7------------7-------------9--9-9--9-9--5--5-5--5-5-| 

XX1134XX 

Taken from The Bass Tab Archive ~ http://www.basstabarchive.com

=============================================================================