Dead Milkmen - The Secret Of Life Text Guitar Tab

Learn song with the online tabulature player
Verse:
-----
    G            D            G
G-------------------------------------------------------|
D-------------------------------------------------------|
A-------------2--5----5-5--3----------------------------|
E---3----3-3------------------3----3-3-----3----3-3-----|

    G            D            C
G-------------------------------------------------------|
D-------------------------------------------------------|
A-------------2--5----5-5--2--3----3-3-----3----3-3-----|
E---3----3-3-----------------------------------------3--|

    C                         G
G-------------------------------------------------------|
D-----------------------------------------------5-5--4--|
A---3----3-3-----3----3-3--2----------------------------|
E-----------------------------3----3-3-----3------------|

    Em                         C
G-------------------------------------------------------|
D---2----2-2-----2----2-2-------------------------------|
A--------------------------5--3----3-3-----3----3-3--2--|
E-------------------------------------------------------|


Chorus:
------
    C                         G
G-------------------------------------------------------|
D-------------------------------------------------------|
A---3----3-3-----3----3-3--2-------------------------2--|
E-----------------------------3----3-3-----3----3-3-----|

    C                         G            D
G--------------------------------------------------------------------|
D--------------------------------------------------------------------|
A---3----3-3-----3----3-3--2------------2--5----5-5-----5----5-5--3--|
E-----------------------------3----3-3-------------------------------|


For the solo, just play the same as during the verse.


End on G.