Dead Milkmen - Tiny Town Text Guitar Tab

Learn song with the online tabulature player
-----------------------------------------------------------------------------
			Dead Milkem - Tiny Town
-----------------------------------------------------------------------------

Tabbed By : Jared
e-mail: XX1134XX@YAHOO.COM

Tuning: Standard

=============================================================================

VERSE                                verse before chorus 

G-----------------------------||----------------------------| 
D-----------------------------||----------------------------| 
A-----------------------------||--------------------5-5-5-5-| 
E-0-5-0-5-0-5--3-3-3--5-5-5-5-||-0-5-0-5-0-5--3-3-3---------| 

CHORUS 

G--------------------------|-----------------------|-------------------| 
D--------------------------|-----------------------|-------------------| 
A-3--3-3-------------------|-7-7--5-5--------------|-7--7-7--5-5--3----| 
E---------3-3--5-5--7--7-7-|-----------5-5--7--7-7-|-------------------| 

G-----------|------| 
D-----------|------| 
A-----------|------| 
E-3----5----|-7----| 

BREAK 

G----------------------|----------------------------------------| 
D-6--6-6--6--6-6-------|-6--6-6--6--6-6-------------------------| 
A----------------------|-----------------7-----5--3--4--2--0--0-| 
E-----------------0--0-|--------------------7-------------------| 

XX1134XX 

Taken from The Bass Tab Archive ~ http://www.basstabarchive.com

=============================================================================