Dead Poetic - Vices Text Guitar Tab

Learn song with the online tabulature player
Verse
E-------------------------------------------|
B-------------------------------------------|
G--------6----------10---------8-----------6|
D-----4--4-------8--8-------6--6-------4---4|
A--6-----6----9-----9----8-----8----6------6|
D-------------------------------------------|

Rinse And Repeat

Chorus Chordes
E---------------|
B---------------|
G---------------|
D--1--8--6--4--3|
A--1--8--6--4--3|
D--1--8--6--4--3|

I think the chorus is a little off but close enough.