Dead To Me - Something New Text Guitar Tab

Learn the song with the online tablature player
Band:  Dead To Me
Song:  Something New
Album: Cuban Ballerina

I know the timing isn’t perfect but I’m pretty sure most notes are correct

Please Rate

Verse 1

G|--------10-9-7-|
D|-10-9-7--------|
A|---------------| x2
E|---------------|

G|----7-9-10-9-7-|
D|-10------------|
A|---------------|
E|---------------|

G|---------------------|
D|-10-9----------------|
A|------00000000000000-|
E|---------------------|

Chorus 1
(0:20)

G|----------------------------2-252-----------------------------------|
D|-----------------0000000-35-------33333333333-5322------------------|
A|-3333333-2222222-----------------------------------33333333-333-222-|
E|--------------------------------------------------------------------|

G|----------------------------2-252------------------------------|
D|-----------------0000000-35-------33333333333-5322-------------|
A|-3333333-2222222-----------------------------------3333333-----|
E|-----------------------------------------------------------5-3-|

Verse 2
(0:40)

G|---------------------------|
D|----------------3333-22-00-|
A|-3333-2222-0000------------| x3
E|---------------------------|

G|--------------------------|
D|--------------------------|
A|-3333-2222-00000000000000-|
E|--------------------------|

Chorus 2
(1:00)

G|----------------------------2-252-----------------------------------|
D|-----------------0000000-35-------33333333333-5322------------------|
A|-3333333-2222222-----------------------------------33333333-333-222-|
E|--------------------------------------------------------------------|

G|----------------------------2-252-------------------------------|
D|-----------------0000000-35-------33333333333-5322--------------|
A|-3333333-2222222-----------------------------------333333333332-|
E|----------------------------------------------------------------|

Bridge 1
(1:20)

G|---------------------|
D|-----------3333-2222-|
A|-0000-3333-----------| x6
E|---------------------|

Guitar solo
(1:35)

( , = mute string)

G|--------------------------------------------------------|
D|---------------------------33333,333333-555555555555555-|
A|-55555,555555-33333,333333------------------------------|
E|--------------------------------------------------------|

Bridge 2
(1:45)

( ~ = let ring)

G|-------------|
D|-------------|
A|-3~-3~-3~-3~-|
E|-------------|

Bridge 3
(1:54)

G|-------------------------------|
D|-------------------------------|
A|-------------------------33-22-| x2
E|-5555555-3333333-1111111-------|

G|-------------------------------|
D|-------------------------------|
A|-----------------33-22---------|
E|-555-333-1111111-------555-333-|

Pause

Chorus 3
2:14)

G|----------------------------2-252-----------------------------------|
D|-----------------0000000-35-------33333333333-5322------------------|
A|-3333333-2222222-----------------------------------33333333-333-222-|
E|--------------------------------------------------------------------|

G|----------------------------2-252-------------------------------|
D|-----------------0000000-35-------33333333333-5322--------------|
A|-3333333-2222222-----------------------------------33333--------|
E|---------------------------------------------------------5-3-1~-|