Deadmau5 - The Veldt Text Guitar Tab

Learn the song with the online tablature player
                             The Veldt - Deadmau5

First tab, intro only.

e|---------------------------------------------------------------------------|
B|------------------2-0-2-0----333-222---------------------------------------|
G|-1-1-1-2-2-2-2-1---------2-----------22222222------------------------------|
D|---------------------------------------------------------------------------|
A|---------------------------------------------------------------------------|
E|---------------------------------------------------------------------------|

e|---------------------------------------------------------------------------|
B|---------------------------2--333-222--------------------------------------|
G|-1-1-1----------1-2-4-2-1-------------2------------------------------------|
D|------ 0-0-0-0-------------------------------------------------------------|
A|---------------------------------------------------------------------------|
E|---------------------------------------------------------------------------|