Dear Juliet - All Those Nights Text Guitar Tab

Learn song with the online tabulature player
All Those Nights By Dear Juliet

Tabbed by: Brad Perrella
email: brad.perrella@live.ca

Standard Tuning

This Tab is For Lisa <3

I've played this to the song it sounds great. In between the chorus and the verse mute 
of the strings and strum twice. Enjoy :)


e|------3-----3------3---------3-----3------3----|
B|--------3-----3-----3----------3-----3-----3---|
G|----------0-----0-----0----------0-----0-----0-|
D|-----------------------------------------------|
A|-----------------------------------------------|
E|--3-3---------------------3-3------------------|

e|------3-----3------3---------3-----3------3----|
B|--------3-----3-----3----------3-----3-----3---|
G|----------0-----0-----0----------0-----0-----0-|
D|-----------------------------------------------|
A|-----------------------------------------------|
E|--3-3---------------------3-3------------------|


e|-------3---3---3-3-3---------3-3--3-3--3---|
B|------3--3------3---3-------3-3----3----3--|
G|-------------------------------------------|
D|-------------------------------------------|
A|--2-2----------------2-2-------------------|
E|--3-3----------------3-3-------------------|


e|-----3----------3-------3---3----3---|
B|-------3---------3-------3---3----3--|
G|--------0---------0-------0---0----0-|
D|--0--------2----------2--------------|
A|--2--------2----------3--------------|
E|--3----------------------------------|

e|-------3--------3--------------------------|
B|--------3--------3-------------------------|
G|---------0---------0-----------------------|
D|--0-----------2----------2-2-2-2-2-----2-2-|
A|--2-----------2----------3-3-3-3-3-----3-3-|
E|--3----------------------------------------|

Chorus:

G
All those nights we danced by the moonlight

C9
Conversations bout nothin' till midnight

A                                Dsus
You and I huddled close till the daylight came

G
Remember the colors reflected in your eyes

C9
The scene painted golden as the sun rises

A                Dsus
Over you and me, darling

e|------3-----3------3---------3-----3------3----|
B|--------3-----3-----3----------3-----3-----3---|
G|----------0-----0-----0----------0-----0-----0-|
D|-----------------------------------------------|
A|-----------------------------------------------|
E|--3-3---------------------3-3------------------|

e|------3-----3------3---------3-----3------3----|
B|--------3-----3-----3----------3-----3-----3---|
G|----------0-----0-----0----------0-----0-----0-|
D|-----------------------------------------------|
A|-----------------------------------------------|
E|--3-3---------------------3-3------------------|


e|-------3---3---3-3-3---------3-3--3-3--3---|
B|------3--3------3---3-------3-3----3----3--|
G|-------------------------------------------|
D|-------------------------------------------|
A|--2-2----------------2-2-------------------|
E|--3-3----------------3-3-------------------|


e|-----3----------3-------3---3----3---|
B|-------3---------3-------3---3----3--|
G|--------0---------0-------0---0----0-|
D|--0--------2----------2--------------|
A|--2--------2----------3--------------|
E|--3----------------------------------|

e|-------3--------3--------------------------|
B|--------3--------3-------------------------|
G|---------0---------0-----------------------|
D|--0-----------2----------2-2-2-2-2-----2-2-|
A|--2-----------2----------3-3-3-3-3-----3-3-|
E|--3----------------------------------------|


Chorus:

G
All those nights we danced by the moonlight

C9
Conversations bout nothin' till midnight

A                                Dsus
You and I huddled close till the daylight came

G
Remember the colors reflected in your eyes

C9
The scene painted golden as the sun rises

A                Dsus
Over you and me, darling


Chorus/Outro:

G
All those nights we danced by the moonlight

C9
Conversations bout nothin' till midnight

A                                Dsus
You and I huddled close till the daylight came

G
Remember the colors reflected in your eyes

C9
The scene painted golden as the sun rises

A                Dsus
Over you and me, darling

A                Dsus
Over you and me, darling

A                Dsus
Over you and me, darling

             G
e|-----------3-------------------|
B|-----------3-------------------|
G|-----------0-------------------|
D|--0h2p0----0-------------------|
A|--------0--2-------------------|
E|-----------3-------------------|

Thats the song I hope you enjoyed it.