Dear Whoever - We Cry Mercy Text Guitar Tab

Learn song with the online tabulature player
http://dearwhoever.com/main.htm

My first tab so yea...
Side Note, sorry but I don't know the lead guitar for the verse. >_<
Another side note, sorry for not knowing the names of the sections.

Tuning: Drop D (DADGBe)


Intro (clean)
e|------------------6---6---6---8-----------6---6---6---6---8-----|
B|---6~---5~-6---5~---6---5---6---5-6~-5------6---5---6---5---5~--|
G|------5------5-------------------------5~-----------------------|
D|-0--------------------------------------------------------------|
A|-0--------------------------------------------------------------|
D|-0--------------------------------------------------------------|
   .

Verse Part I (Distortion)
e|-----------------------------------------------------|
B|-----------------------------------------------------|
G|-----------------------------------------------------|   x2
D|-000000000000-888888888888-555555555555-555555555555-|
A|-000000000000-888888888888-555555555555-555555555555-|
D|-000000000000-888888888888-555555555555-555555555555-|
   ............ ............ ............ ............

Verse Part II (Distortion)
e|-----------------------------------------------------------|
B|-----------------------------------------------------------|
G|-----------------------------------------------------------|   x2
D|-00-00-00-00-88-88-88-88-1010-1010-1010-1010-0000-7-0000-7-|
A|-00-00-00-00-88-88-88-88-1010-1010-1010-1010-0000-7-0000-7-|
D|-00-00-00-00-88-88-88-88-1010-1010-1010-1010-0000-7-0000-7-|
                                               ....   ....

Pre-Chorus (Distortion)
Guitar I                       Guitar II
e|-------------------|         e|----------------------------|
B|-------------------|         B|-11p10-10-10-10-10-10-10-10-|
G|-8p7-7-7-7-7-7-7-7-|   x8    G|----------------------------|   x2
D|-------------------|         D|----------------------------|
A|-------------------|         A|----------------------------|
D|-------------------|         D|----------------------------|

Guitar II (After playing that part ^)
e|----|  |--------------|        |-----------|
B|----|  |-----------10-|        |-----------|
G|----|  |--------------|   x3   |-----------|
D|-00-|  |-000-00-00----|        |-000-00-00-|
A|-00-|  |-000-00-00----|        |-000-00-00-|
D|-00-|  |-000-00-00----|        |-000-00-00-|
   ..      ... .. ..               ... .. ..

Chorus I (Distortion)
e|----------------------------------------------------------------------|
B|-------------------------10-------10-----10-------10-------10-----10--|
G|-------------------------13b------13b----13b------13b------13b----13b-|  x3
D|-88888888-77777777--00-0-----00-0-----00-----00-0-----00-0-----00-----|
A|-88888888-77777777--00-0-----00-0-----00-----00-0-----00-0-----00-----|
D|-88888888-77777777--00-0-----00-0-----00-----00-0-----00-0-----00-----|
                      .. .     .. .     ..     .. .     .. .     ..

Post Chorus (Distortion)
Guitar I           Guitar II
e|----------|      |------------|
B|----------|      |-----6-5----|
G|----------|      |-5-7-----5~-|
D|-8~-7~-5~-|      |------------|
A|-8~-7~-5~-|      |------------|
D|-8~-7~-5~-|      |------------|

Post Post Chorus (Clean)
e|-----------5---6~-8----|
B|---6~---5~---6------5~-|
G|------5----------------|
D|-0---------------------|
A|-0---------------------|
D|-0---------------------|
   .

Verse Part I x2

Verse Part II x2

Chorus I x1

Chorus II (Distortion)
e|------------------------------|
B|------------------------------|
G|------------------------------|
D|-888888888-77777777-0000--000-|
A|-888888888-77777777-0000--000-|
D|-888888888-77777777-0000--000-|
                      ....  ...

Chorus I x1

Bridge I (Distortion)
Guitar I                                Guitar II
e|-1-0-----1-0-----1-0-----1-0-----|    |-3-1-0---3-1-0---3-1-0----3-1-0---|
B|-----3-1-----3-1-----3-1-----3-1-| x2 |-------3-------3--------3-------3-|
G|---------------------------------|    |----------------------------------|
D|---------------------------------|    |----------------------------------|
A|---------------------------------|    |----------------------------------|
D|---------------------------------|    |----------------------------------|

Bridge II
e|---------------------|
B|---------------------|
G|---------------------|
D|-0000-0000-0000-0000-|
A|-0000-0000-0000-0000-|
D|-0000-0000-0000-0000-|
   .... .... .... ....

Bridge III

Guitar I (Plays Bridge I x1)

Guitar II
e|-3~-0-1-|
B|--------|
G|--------|
D|--------|
A|--------|
D|--------|

Bridge II x1

Both Guitars play Bridge I Guitar I x1

Bridge II x1

Bridge III x1

Bridge II x1

e|----------------|
B|----------------|
G|----------------|
D|-0000-0000-0000-|
A|-0000-0000-0000-|
D|-0000-0000-0000-|
   .... .... ....

Chorus I x1

e|-------------------------------------------------------------|
B|------------------------10101010101010101010-----------------|
G|--------------------------------------------------9999999999-|
D|-88888888-77777777-0000----------------------0000------------|
A|-88888888-77777777-0000----------------------0000------------|
D|-88888888-77777777-0000----------------------0000------------|
                     ....                      ....

Chorus I x1

Outro
e|------------------------|
B|------------------------|
G|------------------------|
D|-00-7-00-7-0-7-00-7-777-|
A|-00-7-00-7-0-7-00-7-777-|
D|-00-7-00-7-0-7-00-7-777-|
   ..   ..   .   ..

e|-----------------------------------|
B|---10~---10----10~------10---------|
G|---9~~---9-----9~~------9----------|   x2
D|-0-----0----00-----00-0----0-0-0-0-|
A|-0-----0----00-----00-0----0-0-0-0-|
D|-0-----0----00-----00-0----0-0-0-0-|
   .     .    ..     .. .    . . . .



Key:

. - Palm Mute
~ - Let it ring
p - Pull off
b - Bend