Death Angel - A Room With A View Text Guitar Tab

Learn song with the online tabulature player
2006
                              Death Angel
                       A Room With A View (Act III)
                                6-18-06
                         Tabbed by Elias Karvonen


This is my second tab and the only tab of this song on the web. My first tab was done
I was 11 and it was Dokken's Walk Away also the only tab on the web.  Now I am 13, well in
more days, but anyway I couldn't find this tab anywhere and this is only a couple parts 
the song. Enjoy and PLEASE RATE!!!

Intro (This part isn't exact notes i just strum it.  However you feel do it but this is
the chords and simple idea of the intro.)
                          (Repeat Intro 17 Times)
E--0--0--0--0--0--0------3-----------------3--3--3--3--|--------|
B--1--1--1--0--1--0------3-----------------3--3--3--3--|--------|
G--2--2--2--2--2--2------0--0-----0--0--0--0--0--0--0--|--------|
D--2--2--2--2--2--2---0--0--0-----0--0--0--0--0--0--0--|--------|
A--0--0--0--0--0--0---2-----2-----2--2--2--2--2--2--2--|--------|
E---------------------3-----3-----3--3--3--3--3--3--3--|--------|


After Solo Distortion Riff
(X= Silent Strum, palm mute on frets with picking fingers and play the note.)

E------------------------------------------------------------------|
B------------------------------------------------------------------|
G------------------------------------------------------------------|
D---5-5-x-x------------9-7--7-7-------------------5-4--------------|
A---3-3-x-x---3-3/--7--7-5--5-5--x-x--3--3--x-x---3-2--5/7---------|
E-------------1-1/--5------------x-x--1--1--x-x------- 3/5---------|


Any corrections, comments, or new additions to the song please email me at:
powerslave8486@yahoo.com

Dokken Walk Away Tab Link: http://www.ultimate-guitar.com/tabs/d/dokken/walk_away_tab.htm