Death Cab For Cutie - Different Names For The Same Things Text Guitar Tab

Learn song with the online tabulature player
Intro:
e|--2---2---2---2--||--2---2---2---2---2--|
B|--3---3---3---3--||--3---3---3---3---3--|
G|--2---3---0---2--||--2---1---0---2---2--|
D|--0---0---0---4--||--0---0---0---4---4--|
A|-----------------||---------------------|
E|-----------------||---------------------|

Verse:                                                *
e|--2---2---2---2---2--||--2---2---2---2---2--||--2---2---2---2---2--|
B|--3---3---3---3---3--||--3---3---3---3---3--||--3---3---3---3---3--|
G|--2---3---0---2---2--||--2---3---0---2---2--||--2---1---0---2---2--|
D|--0---0---0---4---4--||--0---0---0---4---4--||--0---0---0---4---4--|
A|---------------------||---------------------||---------------------|
E|---------------------||---------------------||---------------------|

Chorus:
e|--2---2---3---2--|
B|--3---2---0---3--|
G|--4---2---0---2--|
D|--4---4---0---0--|
A|--2---4---2------|
E|------2---3------|
   Bm  F#m  G   D

-Adam R