Death Cab For Cutie - I Will Possess Your Heart Text Guitar Tab

Learn song with the online tabulature player
Death Cab for Cutie
I will possess your heart

Tabbed by:jedichewy
Tuning: standard

These parts are played by a bass guiatar and piano, I think...
anywho. I transcribed it for regular guitar. Enjoy

*** I've updated to include the intro and other parts for piano.***

INTRO

e|------------------------------------|
B|---7--------5----10------12---------|
G|---7--------5----10------12---------|
D|---7--------5----10------12---------|
A|---5--------3----8-------10---------|
E|------------------------------------|

BASS PART:

e|--------------------------------------------------------------------------|
B|--------------------------------------------------------------------------|
G|--------------------------------------------------------------------------|
D|-------------------------------------------------------7------------------|
A|---------------------------------8-----------8----8-10--------------------|
E|---8-10--10-10---8-8---10-10---8---10-10--10---10-------------------------|


Piano part
e|---10-10-8-------------------8------------------------------------------|
B|------------10------------8---------------------------------------------|
G|-------------------10-10-----------7-7-5----------------5---------------|
D|------------------------------------------7----------5------------------|
A|------------------------------------------------8-8---------------------|
E|------------------------------------------------------------------------|

e|---------------------------------------|
B|---------------------------------------|
G|---7-7-5-------------------------------|
D|----------7----7-7-5-------------------|
A|----------------------5----------------|
E|---------------------------------------|

BRIDGE
"you reject my..."    play as needed
e|---------------------------------------|
B|---------------------------------------|
G|---10-----9-----10-----12--------------|
D|---10-----9-----10-----12--------------|
A|---8------7-----8------10--------------|
E|---------------------------------------|