Death Cab For Cutie - Passenger Seat Text Guitar Tab

Learn song with the online tabulature player
Death Cab for Cutie- Passenger Seat
standard tuning
i suggest you use alot of reverb and maybe some chorus...
it makes it sound a wee bit better...

intro/verse
----2---------|       |-----14-----------------3--2--0-2-|
--------------|       |--------------15------------------|
-------2---0--| X's 2 |---------14-----------------------|
-0------------|       |----------------------------------|
--------------|       |-0-------------------2------------|
--------------|       |----------------------------------|

----2---------|       |-----14-----------------3--2--0-2--0---|
--------------|       |--------------15---------------------3-|
-------2---0--| X's 2 |---------14----------------------------|
-0------------|       |---------------------------------------|
--------------|       |-0-------------------2-----------------|
--------------|       |---------------------------------------|

chorus
----------------------------------------------------2----------------|
---------0-3---------------------2-0---------------------------------|
-------0-------------0-2-------0-------------0---------2---0---------|
-----0-----------0-4---------0-----------0-4---4-0-------------4---2-|
---2-----------2-----------2-----------2-----------------------------|
-3-----------3-----------3-----------3-------------------------------|
      "Do they...?"

----------------------------------------------------2-------------2---------|
---------0-3---------------------2-0----------------------------------------|
-------0-------------0-2-------0-------------0---------2---0----------2---0-|
-----0-----------0-4---------0-----------0-4---4-0-------------0------------|
---2-----------2-----------2-----------2------------------------------------|
-3-----------3-----------3-----------3--------------------------------------|
  "With my feet...."

bridge
-----------------------------|
-2----2-3----3-3----3-3----3-|
-2----2-0----0-2----2-0----0-| X's 2
-2----2-0----0-0----0-0----0-|
-0----0----------------------|
--------3----3--------3----3-|
"When you feel embarassed..."

-----------------------------|
-----------------------------|
---------------6----7-4----4-| X's 2
-4----4-4----4-4----4-5----5-|
-5----5-5----5-5----5-5----5-|
-6----6-7----7--------3----3-|
"For all time..."

outro
------------------2-------------------2--------------|
-----------------------------------------------------|
-4----4-4----4--------2----0----------------2------0-|
-5----5-5----5-0-----------------0-------------------|
-5----5-5----5---------------------------------------|
-3----3-3----3---------------------------------------|