Death Cab For Cutie - Sound Of Settling Acoustic Text Guitar Tab

Learn song with the online tabulature player
first tab, couldnt have picked a better song to do.
this is the acoustic version that Ben does by himself...

capo 2

e]---------------------------------------------------------------|
b]---------------------------------------------------------------|
g]---------------------------------------------------------------|
d]-2---2---4---6-------------------------------------------------|
a]-4---4---6---7----4-4---7-7------------------------------------|
e]--0---0---0---0---22-2--55-5-----------------------------------|

chorus

e]-0--0--0--0--|
b]-0--0--0--0--|
g]-1--1--4--2--|
d]-2--2--4--2--|
a]-2--0--2--0--|
e]-0--2--0--0--|
strumming pattern not provided

thats all you need to know.